WIND ME UP

As recorded by Mr. Big
(From the 1989 Album MR. BIG)

Gtr I (E A D G B E) - 'Untitled'
Gtr II (E A D G B E) - 'Untitled'

Intro Pre-Verse
Moderate Rock Q=132
N.C.(E) E5 Esus4 E
4/4
Gtr I
PM| PM PM| PM PM
Wx3 H E. a a S Q E E E E E E E E +E E E E E E E E
|------------|-------------------||----------------0-|-(0)---0---0-0-------|
|------------|-------------------||----------------0-|-(0)---0---0-0-------|
|------------|-------------------||----------------4-|-(4)---2---2-1-------|
|------------|-------------x-x\--||----2-4---------2-|-(2)---2---2-2-------|
|------------|-----------x---x\--||-/5-----5-2-------|---------------------|
|------------|---------x-----x\--||------------4-0---|-----0---0-----4/-x--|

N.C.(E) E5
PM PM| PM--| ~~~
E E E E E E E E +E E E E Q Q
|---------------0-|-(0)----------------|
|---------------0-|-(0)----------------|
|-----------------|--------------------|
|---2-4-----------|----------------2/--|
|-5-----5-2-------|--------------------|
|-----------4-0---|-----0-2-3-[4]------|


N.C.(E) E5 Esus4 E
PM PM| PM PM
E E E E E E E E +E E E E E E E a E
|---------------0-|-(0)---0---0-0---------|
|---------------0-|-(0)---0---0-0---------|
|---------------4-|-(4)---2---2-1---------|
|---2-4---------2-|-(2)---2---2-2---------|
|-5-----5-2-------|-----------------------|
|-----------4-0---|-----0---0-----4s12-x--|


N.C.(E) E5 Esus4 E
PM PM----------| PM PM| PM PM
E E E E E E E E E E E E E E E E E E E E E E E E +E E E E E E Q
|-----------------|-----------------|---------------0-|-(0)---0---0-0-----|
|-----------------|-----------------|---------------0-|-(0)---0---0-0-----|
|-----------------|-----------------|---------------4-|-(4)---2---2-1-----|
|---2-4-----------|-----------------|---2-4---------2-|-(2)---2---2-2-----|
|-5-----5-2-------|-------0-1-2-3-4-|-5-----5-2-------|-------------------|
|-----------4-0-1-|-2-3-4-----------|-----------4-0---|-----0---0-----x\--|


N.C.(E) E5
PM PM| PM--| ~
E E E E E E E E +E E E E Q Q
|---------------0-|-(0)--------------|
|---------------0-|-(0)--------------|
|-----------------|------------------|
|---2-4-----------|------------------|
|-5-----5-2-------|------------------|
|-----------4-0---|-----0-2-3-4--x\--|


N.C.(E) E5 Esus4 E D5
2/4
PM PM|
|-3--|
E E E E E E E E +E E E E E E Q Q Q Q
|---------------0-|-(0)---0---0-0------|-(0)------||
|---------------0-|-(0)---0---0-0------|--3--3-3--||
|---------------4-|-(4)---2---2-1------|--2--2-2--||
|---2-4---------2-|-(2)---2---2-2------|--0--0-0--||
|-5-----5-2-------|--------------------|----------||
|-----------4-0---|-----x---x-----12\--|----------||


Verse
A5 A/C# D5
4/4
PM PM
E E E E E E E E E E E E Q Q
|-----------------|-----------------|
|-----------------|-----------3--3--|
|---2-----2-------|-----2-(2)-2--2--|
|---2-----2-------|---2----2--0--0--|
|-0-----0-----0-3h|=4------x--------|
|-----------------|-----------------|


A5
PM PM PM PM
|--3--| |--3--| |--3--|
E E E E E E E S S E E S S E E S S E E E E E
|---------------------|---------------------------|
|---------------------|---------------------------|
|---2-----2---2h6p2p0-|---------------------------|
|---2-----2-----------|-2h5p2p0-------------------|
|-0-----0---0---------|---------4h7p4p0-----------|
|---------------------|-----------------5-4-5-6---|


B7 Bsus4
PM PM PM PM PM| PM| PM PM
E E E E H E E E E Q Q E E E E a E E E E E E E E E E E E
|-----------------|---------0--0--|-------------------|-------------------|
|---------7-------|---------0--0--|-------------------|-------------------|
|---4-----7tr8----|---8-----------|---4-----7h8-------|-----4---4---4-----|
|---4-----7-------|---7-----------|---4-------7-------|-----4---4---4-----|
|-----------------|---------------|-----------------4-|-5h6---6---6-------|
|-7-----7---------|-7-----7-------|-7---7-7-------7---|---------------6\--|


A5 A7 Asus4
PM PM PM PM
E E E E E E E E E E E E E E E E
|------------------|-----------------|
|------------------|---------3-3-3-3p|
|----2-----2-------|---6-----3-3-3-3-|
|----2-----2---2-4s|=5-------2-2-2-2-|
|--------0---0-----|-------0---------|
|-\5---------------|-----------------|


A A7/C#
PM PM PM| PM
E E E E E E E E E E E E Q. a E
|-------------------|----------------------|
|--2--2-----2-------|----------------------|
|-(2)-2-----2-------|---------0tr2---------|
|-(2)-2-----2-------|---5------------------|
|--0--0---0-----0-3h|=4---3-4-----------0--|
|-------------------|----------------x\----|


B5 B/D# BsusB
PM PM PM--|
E E E E E E E E E E E E E E Q
|-----------------|---------0------|
|-----------------|---------0---4--|
|---4-----4-------|---4-4---4---4--|
|---4-----4-------|---4-4---4---4--|
|-2-----2---2-4-5s|=6-----6---x----|
|-----------------|----------------|


T T T T T
Q E E +H +H E E Q
|---------------------------|---------------------||
|-3--------3(15)-(3(15))----|-(3(15))----15p3-----||
|-2--2(14)------------------|---------------------||
|-0-------------------------|-(0)-----------------||
|---------------------------|---------------------||
|---------------------------|-----------------x\--||
W +H H


Chorus
N.C.(E) E5 Esus4 E
PM PM| PM PM
E E E E E E E E +E E E E E E E E
|---------------0-|-(0)---0---0-0------|
|---------------0-|-(0)---0---0-0------|
|---------------4-|-(4)---2---2-1------|
|---2-4---------2-|-(2)---2---2-2------|
|-5-----5-2-------|--------------------|
|-----------4-0---|-----0---x-----4/-0-|


N.C.(E) E5
PM PM| ~~~~~~~~PM ~ PM
E E E E E E E E +E E E E Q a E E
|---------------0-|-----------------------|
|---------------5-|-(5)-------------------|
|---------------4-|-(4)-------------------|
|---2-4---------2-|-(2)-------------------|
|-5-----5-2-------|-----------------------|
|-----------4-0---|-----0-2-3-4--4s12\-0--|


N.C.(E) E5 Esus4 E N.C.(E)
PM PM| PM PM PM|
E E E E E E E E +E E E E E E Q E E E E E E E E
|---------------0-|-(0)---0---0-0-------|------------------|
|---------------0-|-(0)---0---0-0-------|------------------|
|---------------4-|-(4)---2---2-1-------|---------------/4-|
|---2-4---------2-|-(2)---2---2-2-------|---2-4------------|
|-5-----5-2-------|---------------------|-5-----5-2--------|
|-----------4-0---|-----0---x-----/12\--|-----------4-0----|


|----6----|
E E a S S S S S S a E E S +S +S +S
|-4---------------0------12----------------------------|
|---0--------------------------------------------------|
|-----4s7h9p7h9p7---7s13----15b17r(15)b17==(15)r(15)\--|
|------------------------------------------------------|
|------------------------------------------------------|
|------------------------------------------------------|


E5 Esus4 E N.C.(E) E5
PM PM| PM PM PM| PM ~
E E E E E E E E +E E E E E E Q E E E E E E E E +E E E E Q S E.
|---------------0-|-(0)---0---0-0------|---------------0-|-(0)---------------|
|---------------0-|-(0)---0---0-0------|---------------0-|-(0)---------------|
|---------------4-|-(4)---2---2-1------|-----------------|-------------------|
|---2-4---------2-|-(2)---2---2-2------|---2-4-----------|-------------------|
|-5-----5-2-------|--------------------|-5-----5-2-------|-------------------|
|-----------4-0---|-----0---x-----12\--|-----------4-0---|-----0-2-3-4--4sx\-|


N.C.(E) E5 Esus4 E D5
2/4
PM PM| PM
|-3-|
E E E E E E E E +E E E E E E Q Q Q Q
|---------------0-|-(0)---0---0-0-----|-------||
|---------------0-|-(0)---0---0-0-----|-3-3-3-||
|---------------4-|-(4)---2---2-1-----|-2-2-2-||
|---2-4---------2-|-(2)---2---2-2-----|-0-0-0-||
|-5-----5-2-------|-------------------|-------||
|-----------4-0---|-----0---x-----x\--|-------||


Verse
A5 A/C# D5 A A/C#
4/4
PM PM PM PM PM| PM ~~~~~~~~
E E E E E E E E E E E E Q E E E E E E E E E E E E E E Q Q
|-----------------|----------------|-------------------|--------------------|
|-----------------|---------3--3-3p|==2--2-----2-------|--------------------|
|---2-----2-------|-----2-2-2--2-2-|-(2)-2-----2-------|-----2--------------|
|---2-----2-------|---2-2-2-0--0-0h|==2--2-----2-------|---2----------------|
|-0-----0-----0-3h|=4--------------|--0------0---x-0-3h|=4-----0------------|
|-----------------|----------------|-------------------|---------[3]--[3]---|


B5 B/D# Bsus4 B B7
PM PM PM| PM PM PM| PM
E E E E E E E E E E E E Q Q E E E E E Q E E E E E E E E E
|-----------------|---------0--0--|----------------|------------------|
|-----------------|---------0--0--|---4------------|---4-----4---4----|
|---4-----4-------|-----4---4--4--|---2-----4------|-----2---------4s=|
|---4-----4-------|-----4---------|---4-----4----3s|=4-----4---4------|
|-2-----2-----2-4-|-5s6---6-------|-2-----2--------|------------------|
|-----------------|---------------|----------------|------------------|


A5 Asus4 A A7/C#
PM PM ~~ PM PM| PM
E E E E H +H Q Q E E E E E E E E E E E E Q Q
|-----------------|----------------|-------------------|--------------------|
|-----------10----|-(10)\----3--3p=|==2--------5-------|--------------------|
|-2-2--------9----|--(9)\----2--2--|-(2)-2-----2-------|-----0---0tr2-------|
|---2-------------|----------2--2--|-----2-----2-------|---2---2------------|
|-0---(0)-0-------|----------------|--0------0-----0-3h|=4------------------|
|-----------------|----------------|-------------------|---------------12\--|


B5 B/D# BsusB D5
PM PM PM
E E E E E E E E E E E E E E E E W +H Q Q
|-----------------|---------0-------|----------|-----------------||
|-----------------|---------0---4---|-3--------|-(3)----3/-------||
|---4-----4-------|---4-4---4---4---|-2--------|-(2)----2/-------||
|---4-----4-------|---4-4---4---4---|-0--------|-(0)-------------||
|-2-----2-----2-4s|=6-----6---x---x-|----------|-------------x\--||
|-----------------|-----------------|----------|------------17\--||


Chorus
N.C.(E) E5 Esus4 E N.C.(E) E
PM PM| PM PM PM PM| PM ~
E E E E E E E E +E E E E E E E E E E E E E E E E +E E E E Q S E.
|---------------0-|-(0)---0---0-0------|---------------0-|-(0)---------------|
|---------------0-|-(0)---0---0-0------|---------------0-|-(0)---------------|
|---------------4-|-(4)---2---2-1------|-----------------|-------------------|
|---2-4---------2-|-(2)---2---2-2------|---2-4-----------|-------------------|
|-5-----5-2-------|--------------------|-5-----5-2-------|-------------------|
|-----------4-0---|-----0---x-----4/-0-|-----------4-0---|-----0-2-3-4--4sx\-|


N.C.(E) E5 Esus4 E N.C.(E)
PM PM| PM PM PM PM|
E E E E E E E E +E E E E E E E E E E E E E E E E E E E E E E E E
|---------------0-|-(0)---0---0-0------|------------------|-4---3s4-4s7-7s9\-|
|---------------0-|-(0)---0---0-0------|---------------/4-|------------------|
|---------------4-|-(4)---2---2-1------|------------------|---3-3s4-4s7-7s9\-|
|---2-4---------2-|-(2)---2---2-2------|---2-4------------|------------------|
|-5-----5-2-------|--------------------|-5-----5-2--------|------------------|
|-----------4-0---|-----0---x-----4/-0-|-----------4-0----|------------------|


E5 Esus4 E
PM PM| PM PM
E E E E E E E E +E E E E E E E E
|---------------0-|-(0)---0---0-0------|
|---------------0-|-(0)---0---0-0------|
|---------------4-|-(4)---2---2-1------|
|---2-4---------2-|-(2)---2---2-2------|
|-5-----5-2-------|--------------------|
|-----------4-0---|-----0---x-----4/-0-|


N.C.(E) E5
PM PM| PM ~~~~~~
E E E E E E E E +E E E E Q a Q
|---------------0-|-(0)------------------|
|---------------0-|-(0)------------------|
|-----------------|----------------------|
|---2-4-----------|----------------------|
|-5-----5-2-------|----------------------|
|-----------4-0---|-----0-2-3-4--4s16\---|


N.C.(E) E5 Esus4 E D5
2/4
PM PM| PM
|-3-|
E E E E E E E E +E E E E E E Q Q Q Q
|---------------0-|-(0)---0---0-0-----|-------||
|---------------0-|-(0)---0---0-0-----|-3-3-3-||
|---------------4-|-(4)---2---2-1-----|-2-2-2-||
|---2-4---------2-|-(2)---2---2-2-----|-0-0-0-||
|-5-----5-2-------|-------------------|-------||
|-----------4-0---|-----0---x-----x\--|-------||


Guitar Solo
A7
4/4
Q. +E +S +S E E S S
|------------------------------------------|
|------------------------------------------|
|-16b18====(16)-(16)r(16)-14-14b14.5-------|
|------------------------------------16p14-|
|------------------------------------------|
|------------------------------------------|


S S S S S S S S E +Q +S +S E S S S S S +S +S S E E S S
|--------------------------------------------------|--------------------------------------|
|--------------------------------------------------|--------------------------------------|
|-14-14-------14-14-------16b18==(16)--(16)-(16)r\-|---[4]p2-----[4]b6==(4)r(4)p2-4-2-----|
|-------16p14-------16p14--------------------------|---------4-2----------------------4p2-|
|--------------------------------------------------|--------------------------------------|
|--------------------------------------------------|--------------------------------------|


~~~~~~~~~~~
|-3-|
a E S S S S S S S Q. +S S E S S S S S S T T T T S S S S S S
|--------------------------------|-------------14-16-17-16h17p16-14-------------------|
|--------------------------------|----14-15-16----------------------16-15-14----14----|
|-----6h7p6---6S7-9s12----(12)s4s|=16----------------------------------------16----16-|
|-4s7-------7--------------------|----------------------------------------------------|
|--------------------------------|----------------------------------------------------|
|--------------------------------|----------------------------------------------------|


~~
|--3--|
S S S S S T T S S S T T S S S E E
|-------------------------------------------------------|
|-------------------------------------------------------|
|-14-13-14----13h14p13----13-14h16p14p13----13-16b18-16-|
|----------16----------16----------------16-------------|
|-------------------------------------------------------|
|-------------------------------------------------------|


~~~~~
|--3--|
+E S S S S S S S S S S S S S S S
|--------------------------------------------------|
|--------------------------------------------------|
|-(16)s4s18-------------16h18p16-------18s20s18-16-|
|--------------------16----------18-16-------------|
|-----------16-17-18-------------------------------|
|--------------------------------------------------|


A7
PM PM PM
S S S S E +S +S +S +E S Q S S E E E E E E E
|----------------------------------------------------|-------------------------|
|-------------19b21-(19)b21r(19)b21==(19)r(19)sxs22s=|=x-----------------------|
|-18-18-16-------------------------------------------|-------6---[6]-[7]-[6]---|
|----------18----------------------------------------|-----5---5-------------5-|
|----------------------------------------------------|-------------------------|
|----------------------------------------------------|-------------------------|


PM ~~~~~~~~~~~~~~
|---3----|
E E E E H +E. +S Q E +S +S S E E
|----------------------|--------------[14]b15==(14)r(14)p12-14----------|
|-------------[7]b8----|-(7)-(7)s20\---------------------------[13]b14==|
|-6---[6]-[7]----------|------------------------------------------------|
|---5------------------|------------------------------------------------|
|----------------------|------------------------------------------------|
|----------------------|------------------------------------------------|


PM
+E S S S S S S S +S +S +S +S S a e
|--------------------------------------------------------------|
|-(13)r--------------------------------------------------------|
|-------14p12-14-14p12----14b17==(14)r(14)b17==(14)r(14)-x-----|
|----------------------14----------------------------------xs7-|
|--------------------------------------------------------------|
|--------------------------------------------------------------|


B7 D5
~~~~
E e E E E a E E a E E E E Q E Q W
|----------------------------|--7----10s==11---x/-----|------|
|---------------7-----9\-----|-(7)-x-(9)s(10)---------|-3----|
|-[8]---[9]\-------------4s6-|-(8)---10s==11----------|-2----|
|-----7------/7---7s9--------|--------------------x\--|-0----|
|----------------------------|--------------------x\--|------|
|----------------------------|--------------------x\--|------|


Gtr I
+W S S S S S S S S S S S S S S S S
|------------|----14p10----10----------10----------------------|
|-(3)--------|-------------------------------------------------|
|-(2)--------|-11-------14----14p11-------14p11-14p11----11----|
|-(0)--------|----------------------12----------------12-------|
|------------|----------------------------------------------12-|
|------------|-------------------------------------------------|
|
| Gtr II
| W S S S S S S S S S S S S S S S S
|------------|----17p14----14----------14----------------------|
|------------|-------------------------------------------------|
|------------|-14-------19----19p14-------19p14-19p14----14----|
|------------|----------------------16----------------16-------|
|------------|----------------------------------------------17-|
|------------|-------------------------------------------------|


~~~
H. Q
|---------------||
|---------------||
|---------------||
|-12------------||
|----------x\---||
|----------x\---||
|
| ~~~
| H. Q
|---------------||
|---------------||
|---------------||
|-16-------x\---||
|----------x\---||
|---------------||


Interlude
N.C.(E)
PM PM| ~~~ PM PM|
|-3-|
H Q E a E +Q E E E E Q E E E E E S S S E E
|------------------|----------------------|----------------------|
|------------------|----------------------|----------------------|
|-----------2p0tr2-|-(0tr2)----4----------|----------------------|
|------------------|---------2---2--------|----------------------|
|------------------|---------------5-[4]--|----5-5---7-5h7p5-----|
|------------------|----------------------|-/7-----7---------7-0-|


E E a E E E E E +E
|---------------------------------------------|
|---------------------------------------------|
|----4-----[6]b6.5----11b13-[11]b13==([11])r\-|
|-/6---6s9---------11-------------------------|
|---------------------------------------------|
|---------------------------------------------|


PM|
|-3-|
H Q Q E S S S E E E E E E
|-------------|-------------------------|
|-------------|-------------------------|
|-------------|-------------------------|
|-------------|---------------[5]---[4]-|
|---------x\--|-7-5h7p5-----------------|
|---------x\--|---------7-0-7-----5-----|


PM PM
|-3-| |-3-| |-3-|
E S S S E S S S E S S S E E E E E E E E E E
|-------------------------------|------------------||
|-------------------------------|------------------||
|-------------------------------|------------------||
|-----0h2p0---0h2p0---0---------|------------------||
|---------------------0h2p0-2---|-------0-1-2-3-4--||
|-[3]-------0-------0-------0-1-|-2-3-4------------||


Out-Chorus
N.C.(E) E5 Esus4 E
PM PM| PM PM
E E E E E E E E +E E E E E E E E
|---------------0-|-(0)---0---0-0------|
|---------------0-|-(0)---0---0-0------|
|---------------4-|-(4)---2---2-1------|
|---2-4---------2-|-(2)---2---2-2------|
|-5-----5-2-------|--------------------|
|-----------4-0---|-----0---x-----4/-0-|


N.C.(E)
PM PM| ~~~~~~~~PM ~ PM
E E E E E E E E +E E E E Q a E E
|---------------0-|-----------------------|
|---------------5-|-(5)-------------------|
|---------------4-|-(4)-------------------|
|---2-4---------2-|-(2)-------------------|
|-5-----5-2-------|-----------------------|
|-----------4-0---|-----0-2-3-4--4s12\-0--|


N.C.(E) E5 Esus4 E N.C.(E)
PM PM| PM PM PM----------|
E E E E E E E E +E E E E E E E E E E E E E E E E E E E E E E E E
|---------------0-|-(0)---0---0-0------|-----------------|-----------------|
|---------------0-|-(0)---0---0-0------|-----------------|-----------------|
|---------------4-|-(4)---2---2-1------|-----------------|-----------------|
|---2-4---------2-|-(2)---2---2-2------|---2-4-----------|-----------------|
|-5-----5-2-------|--------------------|-5-----5-2-------|-------0-1-2-3-4-|
|-----------4-0---|-----0---x-----4/-0-|-----------4-0-1-|-2-3-4-----------|


E5 Esus4 E N.C.(E) E5
PM PM| PM PM PM PM| PM ~~~~~~
E E E E E E E E +E E E E E E E E E E E E E E E E +E E E E Q S E.
|---------------0-|-(0)---0---0-0------|---------------0-|-(0)---------------|
|---------------0-|-(0)---0---0-0------|---------------0-|-(0)---------------|
|---------------4-|-(4)---2---2-1------|-----------------|-------------------|
|---2-4---------2-|-(2)---2---2-2------|---2-4-----------|-------------------|
|-5-----5-2-------|--------------------|-5-----5-2-------|-------------------|
|-----------4-0---|-----0---x-----4/-0-|-----------4-0---|-----0-2-3-4--4sx\-|


N.C.(E) E5 Esus4 E N.C.(E)
PM PM| PM PM PM--------|
E E E E E E E E +E E E E E E E E E E E E E E E E E E E E E E E E
|---------------0-|-(0)---0---0-0------|-----------------|-----------------|
|---------------0-|-(0)---0---0-0------|-----------------|-----------------|
|---------------4-|-(4)---2---2-1------|-----------------|-----------------|
|---2-4---------2-|-(2)---2---2-2------|---2-4-----------|-----------------|
|-5-----5-2-------|--------------------|-5-----5-2-------|-------0-1-2-3-4-|
|-----------4-0---|-----0---x-----4/-0-|-----------4-0-1-|-2-3-4-----------|


E5 Esus4 E
PM PM| PM PM
E E E E E E E E +E E E E E E E E
|---------------0-|-(0)---0---0-0------|
|---------------0-|-(0)---0---0-0------|
|---------------4-|-(4)---2---2-1------|
|---2-4---------2-|-(2)---2---2-2------|
|-5-----5-2-------|--------------------|
|-----------4-0---|-----0---x-----4/-0-|


N.C.(E) E5
PM PM| ~~~~~~~~PM ~ PM
E E E E E E E E +E E E E Q a E E
|---------------0-|-----------------------|
|---------------5-|-(5)-------------------|
|---------------4-|-(4)-------------------|
|---2-4---------2-|-(2)-------------------|
|-5-----5-2-------|-----------------------|
|-----------4-0---|-----0-2-3-4--4s12\-0--|


N.C.(E) E5 Esus4 E N.C.(E)
PM PM| ~~~~~~~~PM PM| PM--------|
E E E E E E E E +E E E E E E E E E E E E E E E E E E E E E E E E
|---------------0-|-(0)---0---0-0-----|-----------------|-----------------|
|---------------5-|-(5)---0---0-0-----|-----------------|-----------------|
|---------------4-|-(4)---2---2-1-----|-----------------|-----------------|
|---2-4-----------|-------2---2-2-----|---2-4-----------|-----------------|
|-5-----5-2-------|-------------------|-5-----5-2-------|-------0-1-2-3-4-|
|-----------4-0---|-----0---x-----2-0-|-----------4-0-1-|-2-3-4-----------|


E5 E7sus4 E7
PM PM| ~~~~~~~~
E E E E E E E E +E E E E E Q +E
|---------------0-|-(0)--------------------|
|---------------0-|-(0)---10-10-10-9--(9)\-|
|---------------4-|-(4)----7--7--7-7--(7)\-|
|---2-4---------2-|-(2)--------------------|
|-5-----5-2-------|------------------------|
|-----------4-0---|-----x------------------|


N.C.(E) E5
PM PM| ~~~~~~~~PM
E E E E E E E E +E E E E Q. E
|-----------------|---------------------|
|---------------5-|-(5)---7s8s9---------|
|---------------4-|-(4)-----------------|
|---2-4---------2-|-(2)---4s5s6---------|
|-5-----5-2-------|-----------------/x\-|
|-----------4-0---|-----0----------/19\-|


N.C.(E) E5 Esus4 E
PM PM| PM PM
E E E E E E E E +E E E E E E E E
|---------------0-|-(0)---0---0-0------*|
|---------------0-|-(0)---0---0-0------*|
|---------------4-|-(4)---2---2-1------*|
|---2-4---------2-|-(2)---2---2-2------*|
|-5-----5-2-------|--------------------*|
|-----------4-0---|-----0---x-----4/-0-*|

Read More......

WILD WORLD

As recorded by Mr. Big
(From the 1993 Album BUMP AHEAD)

Gtr I (E A D G B E) - 'gtr 1'
Gtr II (E A D G B E) - 'gtr 2'

Intro
Slowly Q=76
C#m F#7 F# F#7 B Emaj7 E5 Emaj7
4/4
Gtr I
Q S S S S S S S S S S S S E S S S S S S S S S S +S S S S
|-4--4-4-x-4-0-0-x-2-x-0-0-0-|---------------0-0-x-0-(0)-0-x-x-|
|-5--5-5-x-5-2-2-x-2-x-2-2-2-|-4-4-4-4-4-x-x-0-0-x-0-(0)-0-x-x-|
|-6--6-6-x-6-3-3-x-3-x-3-3-3-|-4-4-4-4-4-x-x-8-8-x-9-(9)-8-x-x-|
|-6--6-6-x-6-4-4-x-4-x-4-4-4-|-4-4-4-4-4-x-x-9-9-x-9-(9)-9-x-x-|
|-4--4-4-x-4-----------------|-2-2-2-2-2-x-x-7-7-x-7-(7)-7-x-x-|
|----------------------------|---------------------------------|

A F#m G# G#sus4G# C#m
E S S S S S S S S S S +S S S S E S S E S S S S S S +S S S S
|-5-5-5-5-5-x-2-2-2-2-2-(2)-2-x-4-|-4-4-4-4-4-4-4-4-4-4-(4)-4-x-4-||
|-5-5-5-5-5-x-2-2-2-2-2-(2)-2-x-4-|-4-4-4-4-4-4-4-4-4-4-(4)-4-x-5-||
|-6-6-6-6-6-x-2-2-2-2-2-(2)-2-x-5-|-5-5-5-5-5-5-5-5-5-6-(6)-5-x-4-||
|-7-7-7-7-7-x-4-4-4-4-4-(4)-4-x-6-|-6-6-6-6-6-6-6-6-6-6-(6)-6-x-6-||
|-7-7-7-7-7-x-4-4-4-4-4-(4)-4-x-6-|-6-6-6-6-6-6-6-6-6-6-(6)-6-x-4-||
|-5-5-5-5-5-x-2-2-2-2-2-(2)-2-x-4-|-4-4-4-4-4-4-4-4-4-4-(4)-4-x---||


1st Verse
C#m F# B Emaj7 E5 Emaj7
E S S S S S S E S S S S E E S S S S S S S S S S +S S S S
||--4-4-4-4-4---2-2-2-2-2-2-2S|=7-7-7-7-7-x-x-0-0-x-0-(0)-0-x-x|
||o-5-5-5-5-5---2-2-2-2-2-2-2S|=7-7-7-7-7-x-x-0-0-x-0-(0)-0-x-x|
||--6-6-6-6-6---3-3-3-3-3-3-3S|=8-8-8-8-8-x-x-8-8-x-9-(9)-8-x-x|
||--6-6-6-6-6---4-4-4-4-4-4-4S|=9-9-9-9-9-x-x-9-9-x-9-(9)-9-x-x|
||o-4-4-4-4-4---4-4-4-4-4-4-4S|=9-9-9-9-9-x-x-7-7-x-7-(7)-7-x-x|
||--------------2-2-2-2-2-2-2S|=7-7-7-7-7-x-x------------------|


1.
A F#m G# G#sus4G# C#m
E S S S S S S S S S S +S S S S E S S E S S S S S S +S S S S
|-5-5-5-5-5-x-2-2-2-2-2-(2)-2-x-4-|-4-4-4-4-4-4-4-4-4-4-(4)-4-x-4--||
|-5-5-5-5-5-x-2-2-2-2-2-(2)-2-x-4-|-4-4-4-4-4-4-4-4-4-4-(4)-4-x-5-o||
|-6-6-6-6-6-x-2-2-2-2-2-(2)-2-x-5-|-5-5-5-5-5-5-5-5-5-6-(6)-5-x-4--||
|-7-7-7-7-7-x-4-4-4-4-4-(4)-4-x-6-|-6-6-6-6-6-6-6-6-6-6-(6)-6-x-6--||
|-7-7-7-7-7-x-4-4-4-4-4-(4)-4-x-6-|-6-6-6-6-6-6-6-6-6-6-(6)-6-x-4-o||
|-5-5-5-5-5-x-2-2-2-2-2-(2)-2-x-4-|-4-4-4-4-4-4-4-4-4-4-(4)-4-x----||


2.
G# B
2/4 4/4
E S S S S E +S e S S S S S S S S S S S S S
|-4-4-4-x-x-7-|-(7)-7-5-5-5-5-4-4-4-4-2-2-2-2---||
|-4-4-4-x-x-7-|-(7)-7-5-5-5-5-4-4-4-4-2-2-2-2---||
|-5-5-5-x-x-8-|-(8)-8-6-6-6-6-4-4-4-4-2-2-2-2---||
|-6-6-6-x-x-9-|-(9)-----------------------------||
|-6-6-6-x-x-9-|-(9)-----------------------------||
|-4-4-4-x-x-7-|-(7)-----------------------------||


Chorus
$
$$
E B
Q E S S E S S S S S S
|-0--0-0-0-2-2-2-2-2-2-x-|
|-0--0-0-0-4-4-4-4-4-4-x-|
|-1--1-1-1-4-4-4-4-4-4-x-|
|-2--2-2-2-4-4-4-4-4-4-x-|
|-2--2-2-2-2-2-2-2-2-2-x-|
|-0--0-0-0---------------|
|
| Gtr II
| W
|------------------------|
|------------------------|
|------------------------|
|------------------------|
|------------------------|
|------------------------|


A B Asus2
E S S E S S S S S S S S S S E S S E S S E E E S S
|-0-0-0-0-0-0-0-0-0-0-0-0-0-0-|-2-2-2-2-2-x-0-0-0-0-0--|
|-2-2-2-2-2-2-2-2-2-2-2-2-2-2-|-4-4-4-4-4-x-0-0-0-0-0--|
|-2-2-2-2-2-2-2-2-2-2-2-2-2-2-|-4-4-4-4-4-x-2-2-2-2-2--|
|-2-2-2-2-2-2-2-2-2-2-2-2-2-2-|-4-4-4-4-4-x-2-2-2-2-2--|
|-0-0-0-0-0-0-0-0-0-0-0-0-0-0-|-2-2-2-2-2-x-0-0-0-0-0--|
|-----------------------------|------------------------|
|
| H S S S S S S S S H H
|-------------0---------------|------------------------|
|---------------4-2-0---------|------------------------|
|---------------------2-1-----|------------------------|
|-------------------------4-2-|------------------------|
|-----------------------------|-2----------------------|
|-----------------------------|------------------------|


E B
E E E S S S S S S S S S S E E E S S E S S S S S S
|-0-0-0-x-x-----------------|---0-0-0-0-2-2-2-2-2-2-2-|
|-0-0-0-x-x-----------------|---0-0-0-0-4-4-4-4-4-4-4-|
|-1-1-1-x-x-----------------|---1-1-1-1-4-4-4-4-4-4-4-|
|-2-2-2-x-x-------2-2-2-----|---2-2-2-2-4-4-4-4-4-4-4-|
|-2-2-2-x-x-2-2-4-------4-2-|---2-2-2-2-2-2-2-2-2-2-2-|
|-0-0-0-x-x-----------------|-0-0-0-0-0---------------|
|
| W W
|---------------------------|-------------------------|
|---------------------------|-------------------------|
|---------------------------|-------------------------|
|---------------------------|-------------------------|
|---------------------------|-------------------------|
|---------------------------|-------------------------|


To Dbl. Coda
A
E S S E S S S S S S S S S S
|-0-0-0-0-0-0-0-0-0-0-0-0-0-0--|
|-2-2-2-2-2-2-2-2-2-2-2-2-2-2--|
|-2-2-2-2-2-2-2-2-2-2-2-2-2-2--|
|-2-2-2-2-2-2-2-2-2-2-2-2-2-2--|
|-0-0-0-0-0-0-0-0-0-0-0-0-0-0--|
|------------------------------|
|
| H S S S S S S S S
|-------------0----------------|
|---------------4-2-0----------|
|---------------------2-1------|
|-------------------------4-2--|
|------------------------------|
|------------------------------|


To Coda
B Asus2 E F# G#
E S S E S S E E E S S E E E S S S S S S S S S S
|-2-2-2-2-2-x-0-0-0-x-x-|-----0-x-x-------2-------4-||
|-4-4-4-4-4-x-0-0-0-x-x-|-----0-x-x-----2-------4---||
|-4-4-4-4-4-x-2-2-2-x-x-|-----1-x-x---3-------5-----||
|-4-4-4-4-4-x-2-2-2-x-x-|-2---------4-------6-------||
|-2-2-2-2-2-x-0-0-0-x-x-|-2-------------------------||
|-----------------------|-0-0-----------------------||
|
| H H W
|-----------------------|---------------------------||
|-----------------------|---------------------------||
|-----------------------|---------------------------||
|-----------------------|---------------------------||
|-2---------------------|---------------------------||
|-----------------------|---------------------------||


2nd Verse
C#m F# B Emaj7 E5 Emaj7
E S S S S S S E S S S S E E S S S S S S S S S S +S S S S
|-4-4-4-4-4---2-2-2-2-2-2-2S|=7-7-7-7-7-x-x-0-0-x-0-(0)-0-x-x-|
|-5-5-5-5-5---2-2-2-2-2-2-2S|=7-7-7-7-7-x-x-0-0-x-0-(0)-0-x-x-|
|-6-6-6-6-6---3-3-3-3-3-3-3S|=8-8-8-8-8-x-x-8-8-x-9-(9)-8-x-x-|
|-6-6-6-6-6---4-4-4-4-4-4-4S|=9-9-9-9-9-x-x-9-9-x-9-(9)-9-x-x-|
|-4-4-4-4-4---4-4-4-4-4-4-4S|=9-9-9-9-9-x-x-7-7-x-7-(7)-7-x-x-|
|-------------2-2-2-2-2-2-2S|=7-7-7-7-7-x-x-------------------|


A F#m G# G#sus4G# C#m
E S S S S S S S S S S +S S S S E S S E S S S S S S +S S S S
|-5-5-5-5-5-x-2-2-2-2-2-(2)-2-x-4-|-4-4-4-4-4-4-4-4-4-4-(4)-4-x-4-|
|-5-5-5-5-5-x-2-2-2-2-2-(2)-2-x-4-|-4-4-4-4-4-4-4-4-4-4-(4)-4-x-5-|
|-6-6-6-6-6-x-2-2-2-2-2-(2)-2-x-5-|-5-5-5-5-5-5-5-5-5-6-(6)-5-x-4-|
|-7-7-7-7-7-x-4-4-4-4-4-(4)-4-x-6-|-6-6-6-6-6-6-6-6-6-6-(6)-6-x-6-|
|-7-7-7-7-7-x-4-4-4-4-4-(4)-4-x-6-|-6-6-6-6-6-6-6-6-6-6-(6)-6-x-4-|
|-5-5-5-5-5-x-2-2-2-2-2-(2)-2-x-4-|-4-4-4-4-4-4-4-4-4-4-(4)-4-x---|


C#m F#
E S S S S S S E S S S S E
|--4-4---4--4--4-----2--2--2--2--2-2-2S|
|--5-5---5--5--5-----2--2--2--2--2-2-2S|
|--6-6---6--6--6-----3--3--3--3--3-3-3S|
|--6-6---6--6--6-----4--4--4--4--4-4-4S|
|--4-4---4--4--4-----4--4--4--4--4-4-4S|
|--------------------2--2--2--2--2-2-2S|
|
| Gtr II
| S E. E S S S S S S S S E
|-12p9--12-12-12-12-12-12-12-12-12-----|
|--------------------------------------|
|--------------------------------------|
|--------------------------------------|
|--------------------------------------|
|--------------------------------------|


B Emaj7 E5 Emaj7
E S S S S S S S S S S +S S S S
|--7--7--7--7--7--x--x--0--0--x--0-(0)--0--x--x-|
|--7--7--7--7--7--x--x--0--0--x--0-(0)--0--x--x-|
|--8--8--8--8--8--x--x--8--8--x--9-(9)--8--x--x-|
|--9--9--9--9--9--x--x--9--9--x--9-(9)--9--x--x-|
|--9--9--9--9--9--x--x--7--7--x--7-(7)--7--x--x-|
|--7--7--7--7--7--x--x--------------------------|
|
| E S S S S S S S S S S S S S S
|-11-11-11-11-11-11-11-11-11-11-11-11--11-11-11-|
|-----------------------------------------------|
|-----------------------------------------------|
|-----------------------------------------------|
|-----------------------------------------------|
|-----------------------------------------------|


A F#m G# G# B
2/4
E S S S S S S S S S S +S S S S E S S S S E
|-5-5-5-5-5-x-2-2-2-2-2-(2)-2-x-4-|-4---4-4-x-x-7-|
|-5-5-5-5-5-x-2-2-2-2-2-(2)-2-x-4-|-4---4-4-x-x-7-|
|-6-6-6-6-6-x-2-2-2-2-2-(2)-2-x-5-|-5---5-5-x-x-8-|
|-7-7-7-7-7-x-4-4-4-4-4-(4)-4-x-6-|-6---6-6-x-x-9-|
|-7-7-7-7-7-x-4-4-4-4-4-(4)-4-x-6-|-6---6-6-x-x-9-|
|-5-5-5-5-5-x-2-2-2-2-2-(2)-2-x-4-|-4---4-4-x-x-7-|
|
| E S S S S S S S S S S S S S S S S S S S S E
|-9-9-9-9-9-9-9-9-9-9-9--9--9-9-9-|-8-8-8-8-8---7-|
|---------------------------------|---------------|
|---------------------------------|---------------|
|---------------------------------|---------------|
|---------------------------------|---------------|
|---------------------------------|---------------|


D.S. al Coda
4/4
+S e S S S S S S S S S S S S S
|-(7)-7-5-5-5-5-4-4-4-4-2-2-2-2----||
|-(7)-7-5-5-5-5-4-4-4-4-2-2-2-2----||
|-(8)-8-6-6-6-6-4-4-4-4-2-2-2-2----||
|-(9)------------------------------||
|-(9)------------------------------||
|-(7)------------------------------||
|
| W
|----------------------------------||
|----------------------------------||
|----------------------------------||
|----------------------------------||
|----------------------------------||
|----------------------------------||


Interlude
&
C#m F# B Emaj7
Q S S S S S S S S +S S S S E S S S S S S S S S a S +S S E
|------------------------------|----------------------------------------|
|----5-5-----5-5-5-5-(5)-5---5p|=4-(4)-(4)-4-4-4-4-4-4-4-4h5-(5)-4------|
|----6-6-6-6-6-6-6-6-(6)-6---6p|=4-(4)-(4)-4-4-4-4-4-4-4---4-(4)-4------|
|------------------------------|----------------------------------------|
|------------------------------|----------------------------------------|
|------------------------------|----------------------------------------|


A F#m G#
E. S S S S S S S S a S +S S S S Q E E S S S S S E.
|----------------------------------|---------------------||
|-2--2-2-2-2-2-2-2-2-2h4-(4)-2---x-|-1--1---1-1-1-2---4--||
|-2--2-2-2-2-2-2-2-2---------2---x-|-1--1---1-1-1-1---1--||
|----------------------------------|---------------------||
|----------------------------------|---------------------||
|----------------------------------|---------------------||


3rd Verse
C#m F#
E S S S S S S E S S S S E
|-4-4-4-4-4---2--2--2--2---2---2-2S|
|-5-5-5-5-5---2--2--2--2---2---2-2S|
|-6-6-6-6-6---3--3--3--3---3---3-3S|
|-6-6-6-6-6---4--4--4--4---4---4-4S|
|-4-4-4-4-4---4--4--4--4---4---4-4S|
|-------------2--2--2--2---2---2-2S|
|
| Gtr II
| H E S S +S S E
|---------------12-12-12-(12)-12---|
|----------------------------------|
|----------------------------------|
|----------------------------------|
|----------------------------------|
|----------------------------------|


B Emaj7 E5 Emaj7
E S S S S S S S S S S +S S S S
|--7--7--7--7--7--x--x--0--0--x--0-(0)--0-x-x-|
|--7--7--7--7--7--x--x--0--0--x--0-(0)--0-x-x-|
|--8--8--8--8--8--x--x--8--8--x--9-(9)--8-x-x-|
|--9--9--9--9--9--x--x--9--9--x--9-(9)--9-x-x-|
|--9--9--9--9--9--x--x--7--7--x--7-(7)--7-x-x-|
|--7--7--7--7--7--x--x------------------------|
|
| E S S S S S S S S S S S S E
|-11-11-11-11-11-11-11-11-11-11-11-11--11-----|
|---------------------------------------------|
|---------------------------------------------|
|---------------------------------------------|
|---------------------------------------------|
|---------------------------------------------|


A F#m G# G# B
2/4
E S S S S S S S S S S +S S S S E S S S S E
|-5-5-5-5-5-x-2-2--2-2-2-(2)-2-x-4-|-4---4-4-x-x-7-|
|-5-5-5-5-5-x-2-2--2-2-2-(2)-2-x-4-|-4---4-4-x-x-7-|
|-6-6-6-6-6-x-2-2--2-2-2-(2)-2-x-5-|-5---5-5-x-x-8-|
|-7-7-7-7-7-x-4-4--4-4-4-(4)-4-x-6-|-6---6-6-x-x-9-|
|-7-7-7-7-7-x-4-4--4-4-4-(4)-4-x-6-|-6---6-6-x-x-9-|
|-5-5-5-5-5-x-2-2--2-2-2-(2)-2-x-4-|-4---4-4-x-x-7-|
|
| E S S S S S S E. S S S E S S S S S S E
|-9-9-9-9-9-9-9-9------9--9--9-----|-8-8-8-8-8---7-|
|----------------------------------|---------------|
|----------------------------------|---------------|
|----------------------------------|---------------|
|----------------------------------|---------------|
|----------------------------------|---------------|


D.S.S. al Dbl. Coda
4/4
+S e S S S S S S S S S S S S S
|-(7)-7-5-5-5-5-4-4-4-4-2-2-2-2----||
|-(7)-7-5-5-5-5-4-4-4-4-2-2-2-2----||
|-(8)-8-6-6-6-6-4-4-4-4-2-2-2-2----||
|-(9)------------------------------||
|-(9)------------------------------||
|-(7)------------------------------||
|
| W
|----------------------------------||
|----------------------------------||
|----------------------------------||
|----------------------------------||
|----------------------------------||
|----------------------------------||


&&
B Asus2 E F# G# E B
E E E S S E E E S S Q E S S S S S S S S S S E E E S S E S S S S S S
|---2-2-2-x-0-0-0-x-x-|----0-----------------------|---0-0-0-0-2-2-2-2-2-2-x--|
|---4-4-4-x-0-0-0-x-x-|----0-----------------------|---0-0-0-0-4-4-4-4-4-4-x--|
|---4-4-4-x-2-2-2-x-x-|----1-----------------------|---1-1-1-1-4-4-4-4-4-4-x--|
|---4-4-4-x-2-2-2-x-x-|--------------2-4b6-4-2-----|---2-2-2-2-4-4-4-4-4-4-x--|
|---2-2-2-x-0-0-0-x-x-|----------2-4-----------4-2-|---2-2-2-2-2-2-2-2-2-2-x--|
|---------------------|-0----0-4-------------------|-0-0-0-0-0----------------|


A
E S S E S S S S S S S S S S
|-0-0-0-0-0-0-0-0-0-0-0-0-0-0-|
|-2-2-2-2-2-2-2-2-2-2-2-2-2-2-|
|-2-2-2-2-2-2-2-2-2-2-2-2-2-2-|
|-2-2-2-2-2-2-2-2-2-2-2-2-2-2-|
|-0-0-0-0-0-0-0-0-0-0-0-0-0-0-|
|-----------------------------|
|
| Gtr II
| H S S S S S S S S
|-------------0---------------|
|---------------4-2-0---------|
|---------------------2-1-----|
|-------------------------4-2-|
|-----------------------------|
|-----------------------------|


B Asus2 E
E S S E S S E E E S S E E E S S S S S S S S S S
|-2-2-2-2-2-x-0-0-0-0-0-|-0-0-0-x-x-----------------|
|-4-4-4-4-4-x-0-0-0-0-0-|-0-0-0-x-x-----------------|
|-4-4-4-4-4-x-2-2-2-2-2-|-1-1-1-x-x-----------------|
|-4-4-4-4-4-x-2-2-2-2-2-|-2-2-2-x-x-------2-2-2-----|
|-2-2-2-2-2-x-0-0-0-0-0-|-2-2-2-x-x-2-2-4-------4-2-|
|-----------------------|-0-0-0-x-x-----------------|
|
| H H W
|-----------------------|---------------------------|
|-----------------------|---------------------------|
|-----------------------|---------------------------|
|-----------------------|---------------------------|
|-2---------------------|---------------------------|
|-----------------------|---------------------------|


E B A
E E E S S E S S S S S S E S S E S S S S S S S S S S
|---0-0-0-0-2-2-2-2-2-2-2-|-0-0-0-0-0-0-0-0-0-0-0-0-0-0-|
|---0-0-0-0-4-4-4-4-4-4-4-|-2-2-2-2-2-2-2-2-2-2-2-2-2-2-|
|---1-1-1-1-4-4-4-4-4-4-4-|-2-2-2-2-2-2-2-2-2-2-2-2-2-2-|
|---2-2-2-2-4-4-4-4-4-4-4-|-2-2-2-2-2-2-2-2-2-2-2-2-2-2-|
|---2-2-2-2-2-2-2-2-2-2-2-|-0-0-0-0-0-0-0-0-0-0-0-0-0-0-|
|-0-0-0-0-0---------------|-----------------------------|
|
| W H S S S S S S S S
|-------------------------|-------------0---------------|
|-------------------------|---------------4-2-0---------|
|-------------------------|---------------------2-1-----|
|-------------------------|-------------------------4-2-|
|-------------------------|-----------------------------|
|-------------------------|-----------------------------|


B Asus2 E
E E E S S E E E S S W
|---2-2-2-x-0-0-0-x-x-|-^0---*|
|---4-4-4-x-0-0-0-x-x-|-^0---*|
|---4-4-4-x-2-2-2-x-x-|-^1---*|
|---4-4-4-x-2-2-2-x-x-|-^2---*|
|---2-2-2-x-0-0-0-x-x-|-^2---*|
|---------------------|-^0---*|
|
| W W
|---------------------|-^0---*|
|---------------------|-^0---*|
|---------------------|-^1---*|
|---------------------|-^2---*|
|---------------------|-^2---*|
|---------------------|-^0---*|

Read More......

TAKE A WALK

As recorded by Mr. Big
(From the 1989 Album MR. BIG)

Gtr I (E A D G B E) - 'Untitled'
Gtr II (E A D G B E) - 'Untitled'

Intro
Moderate Rock Q=92
N.C.(Em)
4/4
Gtr I
PM----| PM PM----| PM
H Q Q S S S S S S S S S S S S S S S S
|--------------||------------------------------------------|
|--------------||o-----------------------------------------|
|--------------||------------------------------------------|
|--------------||----------------2b2.5---------------2b2.5-|
|------x\------||o-----------------------------------------|
|------xs=12\--||--0-0-0-0-3p0-0-------0-0-0-0-3p0-0-------|

PM----| PM
S S S S S S S S S S +T T T T T T T T S S
|-------------------------------------------------|
|-------------------------------------------------|
|-----------------------------------------------0-|
|---------------2b2.5---[2]-(2)h5p2p0-----------0-|
|-------------------------------------2h5p2p0-----|
|-0-0-0-0-3p0-0-------x-----------------------3---|


PM----| PM PM----| PM
S S S S S S S S S S S S S S S S
|-----------------------------------------|
|-----------------------------------------|
|-----------------------------------------|
|---------------2b2.5---------------2b2.5-|
|-----------------------------------------|
|-0-0-0-0-3p0-0-------0-0-0-0-3p0-0-------|


1. 2.
D5 A5 D5 D5 A5 D5
PM----| PM PM----|
S S S S S S S S +E E +S E. S S S S S S S S +E E +S E.
|-------------------------------||---------<5>--------------------------||
|---------------3-(3)-------3--o||-------------<5>-----3-(3)-------3----||
|---------------2-(2)-2-(2)-2---||-----------------<5>-2-(2)-2-(2)-2----||
|---------------0-(0)-2-(2)-0---||---------------------0-(0)-2-(2)-0----||
|---------------------0-(0)----o||---------------------------0-(0)------||
|-0-0-0-0-3p0-0-----------------||-0-0-0-0------------------------------||


Band In
E5
E S S S S S S S S S S S S S S
||--------------------------------|
||o-------------------------------|
||--------------------------------|
||--2-----------2---------------2-|
||o-2-----------------------------|
||--0-0-0-3p0-0---0-0-0-0-3p0-0---|


S S S S S S S S S S +T T T T T T T T S S
|-----------------------------------------------|
|-----------------------------------------------|
|-----------------------------------------------|
|---------------------[2]-(2)h5p2p0-----------0-|
|---------------2-------------------2h5p2p0-----|
|-0-0-0-0-3p0-0---(0)-----------------------3---|


S S S S S S S S S S S S S S S S
|---------------------------------|
|---------------------------------|
|---------------------------------|
|---------------2---------------2-|
|---------------------------------|
|-0-0-0-0-3p0-0---0-0-0-0-3p0-0---|


1. 2.
D5 A5 D5 D5 A5
PM----| PM PM----|
S S S S S S S S +E E +S E. S S S S S S S S Q Q
|-------------------------------||---------<5>---------------------||
|---------------3-(3)-------3--o||-------------<5>---------3-------||
|---------------2-(2)-2-(2)-2---||-----------------<5>-----2--2----||
|---------------0-(0)-2-(2)-0---||---------------------<5>-0--2----||
|---------------------0-(0)----o||----------------------------0----||
|-0-0-0-0-3p0-0-----------------||-0-0-0-0-------------------------||


Verse
G5
S S S S E S S S S E Q S S S S E S S S S E Q
||-------------------------|------------------------|
||o-3-3-3-3-3-3-3-3-3-3----|-3-3-3-3-3-3-3-3-3-3----|
||--0-0-0-0-0-0-0-0-0-0----|-0-0-0-0-0-0-0-0-0-0----|
||--0-0-0-0-0-0-0-0-0-0----|-0-0-0-0-0-0-0-0-0-0----|
||o------------------------|------------------------|
||--3-3-3-3-3-3-3-3-3-3----|-3-3-3-3-3-3-3-3-3-3----|


N.C.(Em7)
~~~~~~~ PM--|
E S S E E +E S S S S S S
|-----------------------------|
|-----------------------------|
|-----------------------------|
|-----------------------------|
|-------5-[7]-(7)-5h7-5-------|
|-0-3p0-----------------7-5-3-|


~~~~~~~ PM--|
|-3-|
E S S E E +E S S S S S S S
|-------------------------------|
|-------------------------------|
|-------------------------------|
|-------------------------------|
|-------5-[7]-(7)-5h7p5---------|
|-0-3p0-----------------7-6-5-0-|


G5
S S S S E S S S S E Q S S S S E S S S S E Q
|------------------------|--------------------------|
|-3-3-3-3-3-3-3-3-3-3----|-3-3-3-3-3-3-3-3-3-3------|
|-0-0-0-0-0-0-0-0-0-0----|-0-0-0-0-0-0-0-0-0-0------|
|-0-0-0-0-0-0-0-0-0-0----|-0-0-0-0-0-0-0-0-0-0------|
|------------------------|--------------------------|
|-3-3-3-3-3-3-3-3-3-3----|-3-3-3-3-3-3-3-3-3-3-15\--|


N.C.(Em7)
~~~~~~~ PM--|
E S S E E +E S S S S S S
|-----------------------------|
|-----------------------------|
|-----------------------------|
|-----------------------------|
|-------5-[7]-(7)-5h7-5-------|
|-0-3p0-----------------7-5-3-|


C5 G5
~~~~~~~ PM--|
|-3-|
E S S E E +E S S S S S S S Q E. +S Q Q
|-------------------------------|------------------|
|-------------------------------|------------3--3--|
|-------------------------------|-5--5--(5)\-0--0--|
|-------------------------------|-5--5--(5)\-0--0--|
|-------5-[7]-(7)-5h7p5---------|-3--3--(3)\-------|
|-0-3p0-----------------7-6-5-3-|------------3--3--|


Csus2 G5 C5 G5 B5
E E E E S E S +E S S +Q E. +S Q E S S S S S S S S S S E E Q
|---3-------------------|------------------------|--------------------------||
|-3---3-----3-3-(3)-----|--------------3--3-3-3--|--------------------------||
|-5-----5---0-0-(0)---5-|-(5)--5--(5)\-0--0-0-0--|-----------4-----!4-------||
|-5-------0-0-0-(0)-x-5-|-(5)--5--(5)\-0--0-0-0--|-----------4-----!4-------||
|-3-----------------x-3-|-(3)--3--(3)\-----------|-0h2-2-2-2---2-2-!2-------||
|---------3---3-(3)-x---|--------------3--3-3-3--|--------------------------||


Chorus
E5 D5 A/C# A5 E5
PM--| PM PM ~~~~~~~~~PM| PM PM PM PM
S S S S S S S S +E S S S S S S +E S S S S S S +S S S S S S S S
|-----------------------------------|-----------------------------------|
|---------------3-(3)---------------|-----------------------------------|
|---------------2-(2)---------------|---------------2-(2)---2-----------|
|---------------0-(0)---------------|---------------2-(2)---2-----------|
|-------------------------------[4]-|-(4)-----------0-(0)---0---0-2---2-|
|-0-0-0-0-3p0-0-------0-0-3p0-0-----|-----0-0-3p0-0-------3---3-----3-0-|


D5 A/C#
PM PM ~~~
+E S S S S S S +E S S S S S S
|------------------------------------|
|---------------3-(3)----------------|
|---------------2-(2)----------------|
|-----x-2-------0-(0)----------------|
|-(2)-x-2-----------------------[4]--|
|-(0)-x---3p0-0-------0-0-3p0-0------|


D5 A5 D5 E5 Dsus2
~~~PM| PM
+E S S S S S S +E E +S E. Q Q E E E E
|------------------------------|----------5----------|
|---------------3-(3)-------3--|-------5-(5)--5------|
|---------------2-(2)-2-(2)-2--|-9--9--7-(7)-(7)--7--|
|---------------0-(0)-2-(2)-0--|-9--9--7-(7)-(7)-(7)-|
|-(4)-----------------0-(0)----|-7--7--5-(5)-(5)-(5)-|
|-----0-0-3p0-0----------------|---------------------|


1.
A5 G5 B5
PM------|
Q Q Q Q S S S S S S S S E E Q
|----5-----3--|-----------------------|
|----5-----3--|-----------------------|
|-2-----0-----|-----------4-----4-----|
|-2-----0-----|-----------4-----4-----|
|-0-----------|-0h2-2-2-2---2-2-------|
|-------3-----|-----------------------|


E5
E S S S S S S S S S S S S S S
|-------------------------------|
|-------------------------------|
|-------------------------------|
|-2-----------2---------------2-|
|-2-----------------------------|
|-0-0-0-3p0-0---0-0-0-0-3p0-0---|


S S S S S S S S S S +T T T T T T T T S S
|------------------------------------------------|
|------------------------------------------------|
|------------------------------------------------|
|---------------2-----[2]-(2)h5p2p0-----------0--|
|-----------------------------------2h5p2p0------|
|-0-0-0-0-3p0-0---(0)-----------------------3----|


S S S S S S S S S S S S S S S S
|---------------------------------|
|---------------------------------|
|---------------------------------|
|---------------2---------------2-|
|---------------------------------|
|-0-0-0-0-3p0-0---0-0-0-0-3p0-0---|


2.
D5 A5 B5
PM------|
S S S S S S S S Q Q S S S S S S S S H
|---------<5>--------------------||-----------------------||
|-------------<5>---------3-----o||-----------------------||
|-----------------<5>-----2--2---||-----------4-----------||
|---------------------<5>-0--2---||-----------4-----------||
|----------------------------0--o||-0h2-2-2-2---2-2-2/----||
|-0-0-0-0------------------------||-----------------------||


Guitar Solo
E5 D5 A/C# A5
~~~~~~
Q. a a a E Q +S S E S S S S E S S S S E S S S S
|-0---------------------|-------------------------------------------------|
|-0--------3S2-(2)------|--------------------------(14)-----------14b16===|
|----------4S3-(3)-3s9\-|----7-7---9\-----12-12-----14--12----12--14b16===|
|--------x--------------|-/9-7-7-9-9\-/14-12-12-14--14--12-14-12-(14)b16==|
|------x----------------|-/9-----9----/14-------14---------14-------------|
|----x------------------|-------------------------------------------------|


E5 D5
~~~~~~~~
+E E S S S S +E. +S S S T T T T
|---------------------------------------------------------|
|-(14)r-(12)b12.5-----------------------------------------|
|-(14)r--12b12.5------------------------------[9]-7h9p7---|
|-(14)r--12b12.5--14p12-14-[14]-(14)-(14)\-/9-----------9-|
|---------------------------------------------------------|
|---------------------------------------------------------|


A/C# A5
S S S S S S S S S E +S S E +S
|----------------------------------------------|
|----------------------------------------------|
|-[9]------------------------------------------|
|-----7s5-7-5b6--------------------------------|
|---------------7p5h7-x-4b5==(4)r-x------------|
|-----------------------------------3b4==(3)r/-|


E5 D5
|-----6-----| |-----6-----| |-----6------| |------6-------|
S S S S S S S S S S S S S S S S S S S S S S S S
|-------------------------------------------------------12-------|
|-----------------------------9------12-12p9----9h12s15----15p12-|
|---------9------12p9----9h12---12p9---------12------------------|
|----9h12---12p9------12-----------------------------------------|
|-11-------------------------------------------------------------|
|----------------------------------------------------------------|


A/C# C5
|------6-------| |------6-------| |--3--| |-------6-------|
S S S S S S S S S S S S T T T T S S S S S S S S S
|-15p12----12------------------------------------------------------------------|
|-------15----15p14p12----12---------------------------------------------------|
|----------------------15----15p14p12-14h15p14p12----12------------------------|
|-------------------------------------------------14----12-14----12------------|
|-------------------------------------------------------------14----13s12-(10)-|
|------------------------------------------------------------------------------|


B5
PM--------|
|-------3-------| |-------3-------| |-3-| |-3-|
E E E E E E E E E E E E
|--------------------------------------------------------------||
|--------------------------------------------------------------||
|--------------------------------------------------------------||
|--------------------------------------------------------------||
|--------------------------------------------------------------||
|-12b12.5-11b11.5-10b10.5-[9]b9.5-[8]b8.5-[7]b7.5-6-5-4-3-2-1--||


Chorus
E5 D5 A/C# A5 E5
PM| PM PM ~~~~~~~~~PM| PM PM PM PM
E S S S S S S +E S S S S S S +E S S S S S S +S S S S S S S S
|---------------------------------|-----------------------------------|
|-------------3-(3)---------------|-----------------------------------|
|-------------2-(2)---------------|---------------2-(2)---2-----------|
|-2-----------0-(0)---------------|---------------2-(2)---2---------2-|
|-2---------------------------[4]-|-(4)-----------0-(0)---0---0-2---2-|
|-0-0-0-3p0-0-------0-0-3p0-0-----|-----0-0-3p0-0-------3---3-----3-0-|


A/C#
PM PM ~~~
+E S S S S S S +E S S S S S S
|-------------------------------------|
|---------------3-(3)-----------------|
|---------------2-(2)-----------------|
|-(2)-x-x-------0-(0)-----------------|
|-(2)-x-x-----------------------[4]---|
|-(0)-x-x-3p0-0-------0-0-3p0-0-------|


A5 E5 D5 A/C#
~~~PM| PM PM PM ~~~~
+E S S S S S S +S S S S Q E S S S S S S +E S S S S S S
|------------------------------|---------------------------------|
|------------------------------|-------------3-(3)---------------|
|---------------2-(2)---2---2--|-------------2-(2)---------------|
|---------------2-(2)---2---2--|-2-x-x-------0-(0)---------------|
|-(4)-----------0-(0)---0---0--|-2-x-x-----------------------[4]-|
|-----0-0-3p0-0-------3---3----|-0-x-x-3p0-0-------0-0-3p0-0-----|


A5 E5
~~~~~PM| PM PM PM PM
+E S S S S S S +S S S S S S S S
|-----------------------------------|
|-----------------------------------|
|---------------2-(2)---2-----------|
|---------------2-(2)---2---------2-|
|-(4)-----------0-(0)---0---0-2---2-|
|-----0-0-3p0-0-------3---3-----3-0-|


D5 A/C# A5 Asus2
PM PM| PM ~~~~~~~~~PM| PM
+E S S S S S S +E S S S S S S +E S S S S S S +S S S S Q
|-----------------------------------|---------------------------0--||
|---------------3-(3)---------------|---------------2-(2)s0-2s0-0--||
|---------------2-(2)---------------|---------------2-(2)s0-2s0-2--||
|-(2)-x-x-------0-(0)---------------|---------------2-(2)s0-2s0-2--||
|-(2)-x-x-----------------------[4]-|-(4)-----------0-(0)---0---0--||
|-(0)-x-x-3p0-0-------0-0-3p0-0-----|-----0-0-3p0-0----------------||


Out-Chorus
E5 D5 A/C#
Gtr I
~~~~~~~ ~~~~
Q E. S +Q S S S S
|-------------------------------------------|
|-------14b15-----12-(12)-----14-14-12------|
|-------14b15-----12-(12)-----14-14-12-[12]-|
|-------------------------------------------|
|-------------------------------------------|
|-------------------------------------------|
|
| Gtr II
| PM| PM PM ~~~~
| E S S S S S S +E S S S S S S
|-------------------------------------------|
|------------------3--(3)-------------------|
|------------------2--(2)-------------------|
|-2----------------0--(0)-------------------|
|-2-------------------------------------[4]-|
|-0-0-0--3p===0-0---------0-0--3p=0--0------|


A5 E5 D5 A/C#
~~~~~~ ~~~~~~ ~~~
+Q E E H Q S S S S +E S S S S S S
|------------------------------------|---------0-----------------------------|
|------------------------------------|---------0-3---3-(3)-----12-12-x-12----|
|-(12)-------------------------------|---------2S4---4-(4)-----12-12-x-12----|
|----------x\------------------------|---------------------6-----------------|
|----------x\------------------------|---------------------------------------|
|----------x\------------------------|---------------------------------------|
|
|~~~~~~PM| PM PM PM PM PM PM ~~~
| +E S S S S S S +S S S S S S S S +E S S S S S S +E S S S S S S
|------------------------------------|---------------------------------------|
|------------------------------------|---------------3-(3)-------------------|
|----------------2-(2)---2-----------|---------------2-(2)-------------------|
|----------------2-(2)---2---------2-|-(2)-x-x-------0-(0)-------------------|
|--(4)-----------0-(0)---0---0-2---2-|-(2)-x-x-------------------------[4]---|
|------0-0-3p0-0-------3---3-----3-0-|-(0)-x-x-3p0-0-------0-0--3p=0-0-------|


A5 E5 D5 A/C#
~~~~ ~~
|---3---|
+E S S S S S S +S +S +S +S +Q Q S S S S S +E E S S S S
|------x----------------------------------------------------|-----------------------------------------------------|
|-(12)-x----12----------------------------------------------|---------------------14b15==(14)r-14---12----12------|
|-(12)-x----12-14-12----------------------------------------|-------14p12------12-14b15==(14)r-14---12----12------|
|--------14----14-12----------------------------------------|---------------14-------------------------14----(14)-|
|--------------------[10]-(10)b12==(10)r(10)b12==(10)r(10)--|-----------------------------------------------------|
|-----------------------------------------------------------|-----------------------------------------------------|
|
| ~~~PM| PM PM PM ~~~~
| +E S S S S S S +S S S S Q E S S S S S S +E S S S S S S
|-----------------------------------------------------------|-----------------------------------------------------|
|-----------------------------------------------------------|----------------------3------(3)---------------------|
|----------------------2---(2)------------2-------------2---|----------------------2------(2)---------------------|
|----------------------2---(2)------------2-------------2---|-2-x-x----------------0------(0)---------------------|
|--(4)-----------------0---(0)------------0-------------0---|-2-x-x-------------------------------------------[4]-|
|------0--0--3p=0--0-----------------3-------------3--------|-0-x-x--3p===0-----0---------------0-0--3p=0--0------|


A5 E5
~~~~~~~~~~~~~~
|--3--|
S T T T S S S S S S +Q Q
|----------------------------------------------------------------|
|-------12-15p12-------------------------------------------------|
|-14b16----------15-14-[12]b12.5----12-14-(14)-------[14]--------|
|--------------------------------14------------------------------|
|----------------------------------------------------------------|
|----------------------------------------------------------------|
|
|~~~~~~~ PM| PM PM PM PM
| +E S S S S S S +S S S S S S S S
|----------------------------------------------------------------|
|----------------------------------------------------------------|
|---------------------------------------2--(2)---2---------------|
|---------------------------------------2--(2)---2------------2--|
|-(4)-----------------------------------0--(0)---0-----0--2---2--|
|-----------------0--0---3p=======0--0---------3---3--------3-0--|


D5 A/C#
PM PM PM ~~~~
S S S S S S S S S S S S S a S S S
|--------------------------------------------|
|--------------------------------------------|
|-------------------------[7]---[6]----7--9--|
|----------------------------------7s9-------|
|-------5---7p5---5--5s=7-----7--------------|
|-----7---7-----7----------------------------|
|
| PM PM-| PM ~~~~
| +E S S S S S S +E S S S S S S
|--------------------------------------------|
|-----------------3-(3)----------------------|
|-----------------2-(2)----------------------|
|-(2)---x-x-------0-(0)----------------------|
|-(2)---x-x------------------------------[4]-|
|-(0)---x-x-3p0-0----------0--0--3p==0-0-----|


A5
~~~~~
+S T T S S S S S S +S S S S Q
|------------------------------------|
|------------------------------------|
|-(9)-9p7-----------2-(2)---2---2----|
|---------9-8-7-5---2-(2)---2---2----|
|-----------------7-0-(0)---0---0----|
|-------------------------3---3------|
|
|~~~~~ PM| PM
| +E S S S S S S +S S S S Q
|------------------------------------|
|-------------------2----------------|
|-------------------2-(2)---2---2----|
|-------------------2-(2)---2---2----|
|-(4)---------------0-(0)---0---0----|
|---------0-0-3p0-0-------3---3------|


A5
Gtr II
W +W
| |
/ /

Gtr I
T T
+W +W
|--------------------:----------------:
|--------------------:----------------:
|-(2)----------------:----------------:
|-(2)----(2)-2(21)---:-(2(21))--------:
|-(0)----------------:----------------:
|--------------------:----------------:
+H +E Q.


E13sus2
+W W
|
/

|-3-|
E E E.S S S S S E E E a a a Q +Q Q +Q
|------------------------:-------------------------------*|
|------------------------:-----x-8--(8)s==x--------------*|
|--xsxsxsxsxsxsxsxsxsxsx-:---x---7--(7)s=23b26===(23)r\--*|
|--xsxsxsxsxsxsxsxsxsxsx-:-x-----6--(6)s=22b25===(22)r\--*|
|------------------------:-------7--(7)s=23b26===(23)r\--*|
|------------------------:-------------------------------*|

Read More......

SEVEN IMPOSSIBLE DAYS

As recorded by Mr. Big
(From the 1996 Album BIG, BIGGER, BIGGEST: THE BEST OF MR. BIG; JAPANDEMONIUM)

Gtr I (E A D G B E) - 'Untitled'

Intro, Ist and 2nd Verse
Q=155
D G A D Bm
3/4
Gtr I
Q E E E E Q E E E E Q E E E E Q E E E E Q E E E E
||--2--2-2-2-2S|=7--7-7-7-7-|-5--5-5-5-5-|-5--5-5-5-5-|--2--2-2-2-2--|
||o-3--3-3-3-3S|=8--8-8-8-8-|-5--5-5-5-5-|-7--7-7-7-7-|--3--3-3-3-3--|
||--2--2-2-2-2S|=7--7-7-7-7-|-6--6-6-6-6-|-7--7-7-7-7-|--4--4-4-4-4--|
||-------------|------------|------------|------------|--------------|
||o------------|------------|------------|------------|--------------|
||-------------|------------|------------|------------|--------------|

Bm7 E E7 G
Q E E E E Q E E E E Q E E E E Q E E E E Q E E E E
|-2--2-2-2-2-||-7--7-7-7-7-|-7--7-7-7-7-||-3--3-3-3-3-|-3--3-3-3-3-|
|-3--3-3-3-3-||-9--9-9-9-9-|-9--9-9-9-9-||-3--3-3-3-3-|-3--3-3-3-3-|
|-2--2-2-2-2-||-9--9-9-9-9-|-7--7-7-7-7-||-4--4-4-4-4-|-4--4-4-4-4-|
|------------||------------|------------||------------|------------|
|------------||------------|------------||------------|------------|
|------------||------------|------------||------------|------------|


A D G A D
Q E E E E Q Q Q Q E E E E Q E E E E Q E E E E Q Q Q 3x
|-5--5-5-5-5-|-5--5--5--|-2--2-2-2-2S|=7--7-7-7-7-|-5--5-5-5-5-|-5--5--5---||
|-5--5-5-5-5-|-5--5--5--|-3--3-3-3-3S|=8--8-8-8-8-|-5--5-5-5-5-|-7--7--7--o||
|-6--6-6-6-6-|-6--7--9--|-2--2-2-2-2S|=7--7-7-7-7-|-6--6-6-6-6-|-7--7--7---||
|------------|----------|------------|------------|------------|-----------||
|------------|----------|------------|------------|------------|----------o||
|------------|----------|------------|------------|------------|-----------||


Chorus
$
G D
Q E E E E Q E E E E Q E E E E Q E E E E
|-3--3-3-3-3-|-3--3-3-3-3-|-2--2-2-2-2-|-2--2-2-2-2-|
|-3--3-3-3-3-|-3--3-3-3-3-|-3--3-3-3-3-|-3--3-3-3-3-|
|-0--0-0-0-0-|-0--0-0-0-0-|-2--2-2-2-2-|-2--2-2-2-2-|
|-0--0-0-0-0-|-0--0-0-0-0-|-0--0-0-0-0-|-0--0-0-0-0-|
|-2--2-2-2-2-|-2--2-2-2-2-|------------|------------|
|-3--3-3-3-3-|-3--3-3-3-3-|------------|------------|


A D
Q E E E E Q E E E E Q E E E E Q E E E E
|-0--0-0-0-0-|-0--0-0-0-0-|-2--2-2-2-2-|-2--2-2-2-2-|
|-2--2-2-2-2-|-2--2-2-2-2-|-3--3-3-3-3-|-3--3-3-3-3-|
|-2--2-2-2-2-|-2--2-2-2-2-|-2--2-2-2-2-|-2--2-2-2-2-|
|-2--2-2-2-2-|-2--2-2-2-2-|-0--0-0-0-0-|-0--0-0-0-0-|
|-0--0-0-0-0-|-0--0-0-0-0-|------------|------------|
|------------|------------|------------|------------|


G D
Q E E E E Q E E E E Q E E E E Q E E E E
|-3--3-3-3-3-|-3--3-3-3-3-|-2--2-2-2-2-|-2--2-2-2-2-|
|-3--3-3-3-3-|-3--3-3-3-3-|-3--3-3-3-3-|-3--3-3-3-3-|
|-0--0-0-0-0-|-0--0-0-0-0-|-2--2-2-2-2-|-2--2-2-2-2-|
|-0--0-0-0-0-|-0--0-0-0-0-|-0--0-0-0-0-|-0--0-0-0-0-|
|-2--2-2-2-2-|-2--2-2-2-2-|------------|------------|
|-3--3-3-3-3-|-3--3-3-3-3-|------------|------------|


Em F#m G A
Q E E E E Q E E E E Q E E E E Q E E E E
|-0--0-0-0-0-|-2--2-2-2-2-|--3--3-3-3-3-|-5--5-5-5-5-|
|-0--0-0-0-0-|-2--2-2-2-2-|--3--3-3-3-3-|-5--5-5-5-5-|
|-0--0-0-0-0-|-2--2-2-2-2-|--4--4-4-4-4-|-6--6-6-6-6-|
|-2--2-2-2-2-|-4--4-4-4-4-|--5--5-5-5-5-|-7--7-7-7-7-|
|-2--2-2-2-2-|-4--4-4-4-4-|--5--5-5-5-5-|-7--7-7-7-7-|
|-0--0-0-0-0-|-2--2-2-2-2-|--3--3-3-3-3-|-5--5-5-5-5-|


To Coda
Em F#m G A
Q E E E E Q E E E E Q E E E E Q E E E E
|-0--0-0-0-0-|-2--2-2-2-2-|-3--3-3-3-3-|-5--5-5-5-5--|
|-0--0-0-0-0-|-2--2-2-2-2-|-3--3-3-3-3-|-5--5-5-5-5--|
|-0--0-0-0-0-|-2--2-2-2-2-|-4--4-4-4-4-|-6--6-6-6-6--|
|------------|------------|------------|-------------|
|------------|------------|------------|-------------|
|------------|------------|------------|-------------|


3rd verse, bass solo
D G A D Bm
Q E E E E Q E E E E Q E E E E Q Q Q Q E E E E
||--2--2-2-2-2S|=7--7-7-7-7-|-5--5-5-5-5-|-5--5--5--|-2--2-2-2-2--|
||o-3--3-3-3-3S|=8--8-8-8-8-|-5--5-5-5-5-|-7--7--7--|-3--3-3-3-3--|
||--2--2-2-2-2S|=7--7-7-7-7-|-6--6-6-6-6-|-7--7--7--|-4--4-4-4-4--|
||-------------|------------|------------|----------|-------------|
||o------------|------------|------------|----------|-------------|
||-------------|------------|------------|----------|-------------|


Bm7 E E7 G
Q E E E E Q E E E E Q E E E E Q E E E E Q E E E E
|-2--2-2-2-2-||-7--7-7-7-7-|-7--7-7-7-7-||-3--3-3-3-3-|-3--3-3-3-3-|
|-3--3-3-3-3-||-9--9-9-9-9-|-9--9-9-9-9-||-3--3-3-3-3-|-3--3-3-3-3-|
|-2--2-2-2-2-||-9--9-9-9-9-|-7--7-7-7-7-||-4--4-4-4-4-|-4--4-4-4-4-|
|------------||------------|------------||------------|------------|
|------------||------------|------------||------------|------------|
|------------||------------|------------||------------|------------|


D.S. al Coda
A D G A D
Q E E E E Q Q Q Q E E E E Q E E E E Q E E E E Q Q Q
|-5--5-5-5-5-|-5--5--5--|-2--2-2-2-2S|=7--7-7-7-7-|-5--5-5-5-5-|-5--5--5---||
|-5--5-5-5-5-|-5--5--5--|-3--3-3-3-3S|=8--8-8-8-8-|-5--5-5-5-5-|-7--7--7--o||
|-6--6-6-6-6-|-6--7--9--|-2--2-2-2-2S|=7--7-7-7-7-|-6--6-6-6-6-|-7--7--7---||
|------------|----------|------------|------------|------------|-----------||
|------------|----------|------------|------------|------------|----------o||
|------------|----------|------------|------------|------------|-----------||


&
A G F#m Em
Q E E E E Q E E E E Q E E E E Q E E E E
|-5--5-5-5-5-|-3--3-3-3-3-|-2--2-2-2-2-|-0--0-0-0-0-|
|-5--5-5-5-5-|-3--3-3-3-3-|-2--2-2-2-2-|-0--0-0-0-0-|
|-6--6-6-6-6-|-4--4-4-4-4-|-2--2-2-2-2-|-0--0-0-0-0-|
|------------|------------|------------|------------|
|------------|------------|------------|------------|
|------------|------------|------------|------------|


Last verse
D G A D Bm
Q E E E E Q E E E E Q E E E E Q Q Q Q E E E E
|-2--2-2-2-2S|=7--7-7-7-7-|-5--5-5-5-5-|-5--5--5--|-2--2-2-2-2-|
|-3--3-3-3-3S|=8--8-8-8-8-|-5--5-5-5-5-|-7--7--7--|-3--3-3-3-3-|
|-2--2-2-2-2S|=7--7-7-7-7-|-6--6-6-6-6-|-7--7--7--|-4--4-4-4-4-|
|------------|------------|------------|----------|------------|
|------------|------------|------------|----------|------------|
|------------|------------|------------|----------|------------|


Bm7 E E7 G
Q E E E E Q E E E E Q E E E E Q E E E E Q E E E E
|-2--2-2-2-2-||-7--7-7-7-7-|-7--7-7-7-7-||-3--3-3-3-3-|-3--3-3-3-3-|
|-3--3-3-3-3-||-9--9-9-9-9-|-9--9-9-9-9-||-3--3-3-3-3-|-3--3-3-3-3-|
|-2--2-2-2-2-||-9--9-9-9-9-|-7--7-7-7-7-||-4--4-4-4-4-|-4--4-4-4-4-|
|------------||------------|------------||------------|------------|
|------------||------------|------------||------------|------------|
|------------||------------|------------||------------|------------|


A D G A D
Q E E E E Q Q Q Q E E E E Q E E E E Q E E E E Q Q Q
|-5--5-5-5-5-|-5--5--5--||--2--2-2-2-2S|=7--7-7-7-7-|-5--5-5-5-5-|-5--5--5---||
|-5--5-5-5-5-|-5--5--5--||o-3--3-3-3-3S|=8--8-8-8-8-|-5--5-5-5-5-|-7--7--7--o||
|-6--6-6-6-6-|-6--7--9--||--2--2-2-2-2S|=7--7-7-7-7-|-6--6-6-6-6-|-7--7--7---||
|------------|----------||-------------|------------|------------|-----------||
|------------|----------||o------------|------------|------------|----------o||
|------------|----------||-------------|------------|------------|-----------||


Q=115
D G A D
Q E E E E Q E E E E Q E E E E Q Q Q
|-2--2-2-2-2S|=7--7-7-7-7-|-5--5-5-5-5-|-5--5--5--|
|-3--3-3-3-3S|=8--8-8-8-8-|-5--5-5-5-5-|-7--7--7--|
|-2--2-2-2-2S|=7--7-7-7-7-|-6--6-6-6-6-|-7--7--7--|
|------------|------------|------------|----------|
|------------|------------|------------|----------|
|------------|------------|------------|----------|


D
Q +E +E +E +E +Q +E +E +E +E
|-^2--(2)-(2)-(2)-(2)-|-(2)--(2)-(2)-(2)-(2)-*|
|-^3--(3)-(3)-(3)-(3)-|-(3)--(3)-(3)-(3)-(3)-*|
|-^2--(2)-(2)-(2)-(2)-|-(2)--(2)-(2)-(2)-(2)-*|
|---------------------|----------------------*|
|---------------------|----------------------*|
|---------------------|----------------------*|

Read More......

ROCK & ROLL OVER

As recorded by Mr. Big
(From the 1989 Album MR. BIG)

Gtr I (E A D G B E) - 'Untitled'
Gtr II (E A D G B E) - 'Untitled'

Intro
Moderate Rock Q=132
G5 G7sus4 G A
4/4
Gtr II
Q. E +Q. E +H Q Q
| | | | | | |
/ / / / / o o

Gtr I
PM
E E E E +E E E E +H Q Q
|----------------------------|-----------------|
|----------------------------|-----------------|
|-----------12-(12)-------10-|-(10)------------|
|-----10-12------------10----|-----------------|
|-10----------------10-------|---------10--12--|
|----------------------------|-----------------|

Bb5 Dm7
W W
| |
/ /

PM|
|--3--|
E E E E E E E E E E E S S S H
|------------------------|-------------------------|
|------------------------|-10-------10h11p10-------|
|----------12---------10-|----10-------------10----|
|----10h12---------10----|-------10----------10----|
|-13------------13-------|-------------------------|
|------------------------|-------------------------|


G G5 G7sus4 G A
E Q E +Q. E +H Q Q
| | | | | | | |
o / / / / / o o

PM
E E E E +E E E E +H Q Q
|---------------------------|-----------------|
|---------------------------|-----------------|
|----------12-(12)-------10-|-(10)------------|
|----10-12------------10----|-----------------|
|-10---------------10-------|---------10--12--|
|---------------------------|-----------------|


Bb5 Dm7
W H.. +E
| | |
/ / /

PM|
E E E E +E E E E E E E E E E Q
|----------------------------|-------------------------------|
|----------------------------|------------11p10-(10)-(10)----|
|----------12-(12)\-------10-|-10---10-----------10--(10)----|
|----10h12-------------10----|---------10-------------10-----|
|-13----------------13-------|-------------------------------|
|----------------------------|-------------------------------|


Verse
G5 N.C.(Gm) Gm
PM--------| PM PM PM--| PM
+S S E E E E E E E E E E E E E E E +E E E E E E E E
|-----------------------|-----------------||---------------------|
|-(10)\-----------------|-----------------||o--------------------|
|-(10)\-----------------|---3-----3---5-3-||--(3)---3------------|
|-(10)\-------------5-5-|---3-----3---5-3-||--(3)---3-------5----|
|---------5-5-5-5-5-5-5-|-----4-5---------||o---------------5----|
|---------3-3-3-3-3-3-3-|-----------3-----||------3---3-3-3---3--|


Bb5 C5 Bb5 G5 Bb5
PM--| ~~~~~~ PM--|
E E E E E E E E +Q. E +Q. E +E E E E E E E E
|-----------------|-----------------|-------------------|
|-----------------|-----------------|-------------------|
|-------3---3---3-|-(3)---5-(5)---3-|-(3)-------------3-|
|-------3---3---3-|-(3)---5-(5)---3-|-(3)-5-------5---3-|
|---------x-------|-----------------|-----5-------5-----|
|-3-3-3---x-------|-----------------|-------3-3-3-------|


C5 Bb5 G5
Gtr I
~~~~~~~~~~~ PM PM PM--|
+Q. E +Q. E +E E E E E E E E
|---------------------------------|-------------------|
|---------------------------------|-------------------|
|-(3)----5-----(5)--------------3-|-(3)---------------|
|-(3)----5-----(5)--------------3-|-(3)---5---5-------|
|---------------------------------|-------5---5-------|
|---------------------------------|-----3---3---3-3-3-|
|
| Gtr II
| ~~~~ PM PM PM--|
| Q. E +S +S +Q E +E E E E E E E E
|---------------------------------|-------------------|
|---------------------------------|-------------------|
|-(3)---[5]b8==(5)r(5)b8==(5)r--3-|-(3)---------------|
|-(3)---------------------------3-|-(3)---5---5-------|
|---------------------------------|-------5---5-------|
|---------------------------------|-----3---3---3-3-3-|


Bb5 C5 Bb5 G5
PM ~~~~~~ PM|
E E E E E E E E +Q. E +Q. E +E E E E Q Q
|-----------------|-----------------|----------------------||
|-----------------|-----------------|----------------------||
|-------3---3---3-|-(3)---5-(5)---3-|-(3)------------------||
|-5---5-3---3---3-|-(3)---5-(5)---3-|-(3)-5-----5----------||
|-5---5---x-------|-----------------|-----5-----5----------||
|---3-----x-------|-----------------|-------3-3-----3/-----||
|
| PM ~~~~~~ PM|
| E E E E E E E E +Q. E +Q. E E E E E Q. E
|-----------------|-----------------|----------------------||
|-----------------|-----------------|----------------------||
|-------3---3---3-|-(3)---5-(5)---3-|-(3)------------------||
|-5---5-3---3---3-|-(3)---5-(5)---3-|-(3)-5-----5\---------||
|-5---5---x-------|-----------------|-----5-----5\---------||
|---3-----x-------|-----------------|-------3-3------------||


Pre-Chorus
Ebsus4 Bb Dm/A G5
H E E E E H E E E E Q. E E E E E Q. E E E Q
|-------6-------|-------6-------|------------------|-^3----3-----3--|
|-^6------6-----|-^6------6-----|------------------|-^3------3---3--|
|-^8--------8---|-^7--------7---|-7----7-^7---^5h7-|-^0--------0----|
|-^8----------8-|-^8----------8-|-7----7-^7---^5h7-|-^0-------------|
|-^6------------|-^8------------|-5----5-^5---^5---|----------------|
|---------------|-^6------------|-5----5----x------|-^3-------------|
|
| H E E E E H E E E E Q. E E E E E H H
|-------6-------|-------6-------|------------------|--3------3------|
|-^6------6-----|-^6------6-----|------------------|--3------3------|
|-^8--------8---|-^7--------7---|-7----7-^7---^5h7-|--0------0------|
|-^8----------8-|-^8----------8-|-7----7-^7---^5h7-|--0------0------|
|-^6------------|-^8------------|-5----5-^5---^5---|----------------|
|---------------|-^6------------|-5----5----x------|--3------3------|


Ebsus2 Bb Fsus2 Em7
Q. E E E E E Q. E E E E E Q E E E E Q Q E E E Q.
|--------6-------|--------6-------|----------8--------|---------------|
|-6----6---6-----|-6----6---6-----|-----8------8------|--------8------|
|-8----8-----8---|-7----7-----7---|-10----10-----10\--|------7---7\---|
|-8----8-------8-|-8----8-------8-|-10----------------|----5----------|
|-6----6---------|-8----8---------|--8----------------|-7-------------|
|----------------|-6----6---------|-------------------|---------------|


Chorus
Bb5 C5 (Gm) G5 C5 D5
PM PM ~~~~~~ PM PM--|
|-3-|
Q Q Q E E E E +E E E E E E +Q E E E E E E E E +E E E E E E E E
|---------------||--------------------|-----------------|--------------------|
|---------------||--------------------|-----------------|--------------------|
|-3-3-3-5-----3-||-(3)----------------|-----3---------5-|-(5)---5-------5s7--|
|-3-3-3-5-----3-||-(3)---5---3-5-(5)--|-3-5-3-5-------5-|-(5)-----------5s7--|
|-1-1-1-3-------||-------5---3-5-(5)--|-3-5---5---x-x-3-|-(3)-3---3-3-3-3s5--|
|---------------||-----3---3----------|-----------x-x---|--------------------|


(Gm) G5 C C5 D5
Gtr I
PM PM| PM PM ~~~~~~ PM PM--|
E E E E E E E E +E E E E E E +Q E E E E E E E E +E E E E E E E E
|-----------------|--------------------|-----------------|-------------------|
|-----------------|--------------------|---------------5-|-(5)---------------|
|-7---7-----7---3-|-(3)----------------|-----3---------5-|-(5)---5-------5s7-|
|-7---7-----7---3-|-(3)---5---3-5-(5)--|-3-5-3-5-------5-|-(5)---5---5---5s7-|
|-5-5---5-5-------|-------5---3-5-(5)--|-3-5---5---x-x-3-|-(3)-3---3---3-3s5-|
|-----------------|-----3---3----------|-----------x-x---|-------------------|
|
| Gtr II
| PM PM| PM PM ~~~~~~~~~~~ PM--| PM PM
| E E E E E E E E +E E E E E E +Q Q E E E E E E +E E E E E E E E
|-----------------|--------------------|-----------------|-------------------|
|-----------------|--------------------|-----------------|-------------------|
|-7---7-----7---3-|-(3)----------------|---------------5-|-(5)---5---5---5s7-|
|-7---7-----7---3-|-(3)---5---3-5-(5)--|-5---3-5-------5-|-(5)---5---5---5s7-|
|-5-5---5-5-------|-------5---3-5-(5)--|-5---3-5-5-5-5-3-|-(3)-3---3---x-3s5-|
|-----------------|-----3---3----------|---------3-3-3---|-------------------|


1.
G5
Gtr II
W W
|
/

Gtr I
PM
Q Q H E E E E +E E E E
|----------------|---------------------------|
|----------------|---------------------------|
|-7-------<7>----|----------12-(12)-------10-|
|-7--<7>---------|----10h12------------10----|
|-5--------------|-10---------------10-------|
|----------------|---------------------------|


2.
+H. +Q W
| |
/ /

PM PM
|--3--|
+Q Q Q Q E E E E E E E E E E
|-----------------------||---------------------||
|----------------------o||---------------6b8===||
|-(10)---------------3--||-7---7-----7---------||
|--------------------3--||-7---7-x---7---------||
|------x\-----x\-------o||-5---5-x-5---5-------||
|---------x\-15s=10\----||---------------------||


Guitar Solo
(Gm) (C)
~~~~~~~~~~~ ~~
+H +E +E E E +S S S S S S S S E. +S S S E
|------------------------------|-------------------------------------|
|-(6)----(6)r(6)\--------------|--------------------------------6b8==|
|-----------------[5]b7-[5]b7==|=(5)rp3-----3h4----------------------|
|------------------------------|--------5-x-----5p3-5--(5)s12--------|
|------------------------------|-------------------------------------|
|------------------------------|-------------------------------------|


(Dm) (Gm)
~
|-3-| |-3-| |----6----|
+E S S S E +E S S S S S S S S S S S S S S S S S S S S S S S S S E
|------3-----5b6==(5)r-3h5p3---3---------|------------------------------------------|
|-(6)r---6p3-----------------6---6-5-3---|-5h6p5-3s2h3-2----------------------------|
|--------------------------------------6-|---------------5-3---5p3b3.5-----3-3------|
|----------------------------------------|-------------------5---------5-3-----5----|
|----------------------------------------|------------------------------------------|
|----------------------------------------|------------------------------------------|


(C)
~~~ ~~~~
|-3-| |-3-| |--3--| |--3--|
+E S S S Q S S S S S a E S S S E +S S S S S E +Q. +E
|-------------------------------------------|--------------------------------------------|
|-------------------------------------------|-------------------------18b20==(18)---(18)-|
|-----------[3]b4--------5s12-xs15----------|-15b17==(15)r---18p17p15--------------------|
|-(5)-5p3----------5p3-------------17p15----|--------------------------------------------|
|---------5------------x-----------------17-|--------------------------------------------|
|-------------------------------------------|--------------------------------------------|


~~~~~~~
|-----6------| |-------6--------| |------6-------|
+E S S S S S S S S S S S S S S S S S S S S
|--------------------------------------------------------------------|
|-(18)r-x-15h18p15----15------------------15h17h18-17p15----15h17h18-|
|------------------18----18p17-15h17h(18)----------------18----------|
|--------------------------------------------------------------------|
|--------------------------------------------------------------------|
|--------------------------------------------------------------------|


Gtr II
|--------7--------| |-----6-----| |------6-------|
S S S S S S S S E S S S S S S S S S E E
|-15----------------15h17p15----15-18-17h18p17p15----15-20b22-20-||
|----18p17-15h17h18----------18-------------------18-------------||
|----------------------------------------------------------------||
|----------------------------------------------------------------||
|----------------------------------------------------------------||
|----------------------------------------------------------------||
|
| Gtr I
| H Q E E
|----------------------------------------------------------------||
|----------------------------------------------------------------||
|--------------------------------------------------------------5-||
|--------------------------------------------------------------5-||
|--------------------------------------------------------------3-||
|----------------------------------------------------------------||


Bridge
G5
~~~~
+H. Q W
|-(20)--------------|------------------|
|-------------------|------------------|
|-------------------|------------------|
|-------------------|------------------|
|-------------------|------------------|
|-------------------|------------------|
|
| PM--| PM----| PM|
| +Q E E E E E E E E E E E E E E
|-------------------|------------------|
|-------------------|------------------|
|--(5)--5-------5---|-----5-----5---0--|
|--(5)--5-------5---|-----5-----5---5--|
|--(3)--3-3-3-3---3-|-3-3---3-3-----5--|
|-------------------|---------------3--|


C5
Gtr I
PM----| PM PM--| PM
+H Q. E +E E E E E E E E Q E E E E E E
|---------------|-------------------|----------------|
|---------------|-------------------|----------------|
|-(0)-----------|-------------------|-5--5-------5---|
|-(5)----5----3-|-(3)-5---------5---|-5--5-------5---|
|-(5)----5----3-|-(3)-5---------5---|-3--3-3-3-3---3-|
|-(3)-----------|-------3-3-3-3---3-|----------------|


G5
PM| PM| PM--| PM|
E E E E E E E E +Q E E E E E E +E E E E E E Q
|-----------------|------------------|------------------||
|-----------------|------------------|------------------||
|-----5-----5---0-|-(0)--------------|------------------||
|-----5-----5---5-|-(5)--------5---3-|-(3)-5-----5---5--||
|-3-3---3-3---x-5-|-(5)--------5---3-|-(3)-5-----5---5--||
|---------------3-|-(3)--3-3-3-------|-------3-3---3----||


H E E E E Q E E E E E E Q E E E E E +E E E E E Q Q
|------6-------|--------6-------|-----------8------------|----------------|
|-6------6-----|-6----6---6-----|--8----------8----------|---------8------|
|-8--------8---|-7--7-------7---|-10-----10-----10-(10)\-|-----5h7----7\--|
|-8----------8-|-8------------8-|-10--10-----------------|---5------------|
|-6------------|-8--------------|--8---------------------|-6--------------|
|--------------|-6--------------|------------------------|----------------|


C5
2/4 4/4
Gtr II
W W +W
| |
/ /

Gtr I
|-3-|
Q Q Q E E E E +E E Q E E E E +E E Q
|--------|-------------------------|-------------------------|
|--------|-------------------------|-------------------------|
|-3-3-3--|----------12-(12)----10--|----------12-(12)----10--|
|-3-3-3--|----10-12---------10-----|----10-12---------10-----|
|-1-1-1--|-10----------------------|-10----------------------|
|--------|-------------------------|-------------------------|


G5
+W +H +Q. E
| | |
/ / /

E E E E +E E Q E E E E +Q. E
|-------------------------|------------------------||
|-------------------------|------------------------||
|----------12-(12)----10--|----------12-(12)---0---||
|----10-12---------10-----|----10-12-----------0---||
|-10----------------------|-10---------------------||
|-------------------------|------------------------||


Out-Chorus
Gtrs I, II
~~~
+W +E S S E E E E E E
|------------|-----------------------|
|------------|-------------5b6-5-3-5-|
|-(0)--------|-(0)-----3---5b6-5-3-5-|
|-(0)--------|-(0)-----3-5-----------|
|------------|-----3s5---5-----------|
|------------|-----------------------|


~~~~~ ~~~ PM
+Q E E E E E E +E Q E +Q E E
|---------------------|-------------------------|
|-(5)--3---3---3-5b6==|=(5)r-5b6--5b6r(5)-------|
|-(5)--3-5-3-5-3-5b6==|=(5)r-5b6--5b6r(5)----3--|
|--------5---5--------|----------------------3--|
|---------------------|-------------------------|
|---------------------|--------------------3----|


G5 C5
Gtr I
PM PM ~~~~~~~~~~~ PM| ~~~~~~
+E E E E E Q +E E E E E E E E E
|------------------------|----------------------|
|------------------------|---------------18b20==|
|-(3)--------------------|-----3----------------|
|-(3)---5---3-5-----(5)\-|-3-5-3-5--------------|
|-------5---3-5-----(5)\-|-3-5---5--------------|
|-----3---3--------------|---------3-3----------|
|
| Gtr II
| PM PM ~~~~~~
| +E E E E E E +Q E E E E E E E E
|------------------------|----------------------|
|------------------------|----------------------|
|-(3)--------------------|-----3----------5-----|
|-(3)---5---3-5-(5)------|-3-5-3-5--------5-----|
|-------5---3-5-(5)------|-3-5---5---x-x--3-----|
|-----3---3--------------|-----------x-x--------|


D5
|--3--|
+E S S S S S S S S S T +T +T T S S S S
|-------------------------------------------------------------------|
|-(18)r-15h18p15----15----------------------------------------------|
|----------------18----18-17-15----17b18==(17)r(17)p15-------15-15--|
|-------------------------------17---------------------17-15--------|
|-------------------------------------------------------------------|
|-------------------------------------------------------------------|
|
| PM PM---------|
| +E E E E E E E E
|-------------------------------------------------------------------|
|-------------------------------------------------------------------|
|--(5)------------5-------------------------------------5s====7-----|
|--(5)--------------------------------------------------5s====7-----|
|--(3)---3--------------3-----3-----3-------------------3s====5-----|
|-------------------------------------------------------------------|


(Gm) G5
~~~~~~~~~
S S S S S S S S S S S S S S E +Q +E E H
|----------------------------------------------|-------------------------|
|----------------------------------------------|-------------------------|
|----------------------------------------------|-------------------------|
|-17p15----15----------------------------------|-------------------------|
|-------17----17-16-15S13-15-13-------13-13----|-------------------------|
|-------------------------------15p13-------15-|-(15)---(15)\------------|
|
| PM PM---| PM PM ~~~~~~
| E E E E E E E E +E E E E E E +Q
|----------------------------------------------|-------------------------|
|----------------------------------------------|-------------------------|
|--7-----------7-----------------7-----------3-|--(3)--------------------|
|--7-----------7-----------------7-----------3-|--(3)-----5-----3-5-(5)--|
|--5-----5-----------5-----5-------------------|----------5-----3-5-(5)--|
|----------------------------------------------|------3-------3----------|


C5 D5
~~~~~~~~~~~~
|--3--|
H Q E E +E Q E +E S S S S S S S
|---------------18b20==|=(18)r-18b22---18b20==(18)r-15h18p15----15--------|
|----------------------|-------------------------------------18----18p17--|
|----------------------|--------------------------------------------------|
|----------------------|--------------------------------------------------|
|----------------------|--------------------------------------------------|
|----------------------|--------------------------------------------------|
|
| PM PM----------|
| E E E E E E E E +E E E E E E E E
|----------------------|--------------------------------------------------|
|----------------------|--------------------------------------------------|
|-----3----------5-----|--(5)--------5------------------------5s====7-----|
|-3-5-3-5--------5-----|--(5)---------------------------------5s====7-----|
|-3-5---5---x-x--3-----|--(3)---3-------3-------3----3--------3s====5-----|
|-----------x-x--------|--------------------------------------------------|


(Gm)
~~~
|--3--| |--3--|
S S S S S S S S S S S S S S S S E
|----------------------------------------------------|
|-15----17h18p17-15s14h15p14-------------------------|
|----17----------------------17-15----17-17p15----15-|
|----------------------------------17----------17----|
|----------------------------------------------------|
|----------------------------------------------------|
|
| PM PM---|
| E E E E E E E E
|----------------------------------------------------|
|----------------------------------------------------|
|--7--------------7--------------------7-----------3-|
|--7--------------7--------------------7-----------3-|
|--5-----5-----------------5-----5-------------------|
|----------------------------------------------------|


G5 C5
~~~~~~
+Q +E E H H E S S E E
|-------------------------|--------------------|
|-------------------------|--------------------|
|-(15)---(15)\------------|---------------3----|
|-------------------------|---------------3----|
|-------------------------|-----------3s5---5--|
|-------------------------|--------------------|
|
| PM PM ~~~~~~
| +E E E E E E +Q E E E E E E E E
|-------------------------|--------------------|
|-------------------------|--------------------|
|--(3)--------------------|-----3-----------5--|
|--(3)-----5-----3-5-(5)--|-3-5-3-5---------5--|
|----------5-----3-5-(5)--|-3-5---5---x---x-3--|
|------3-------3----------|-----------x---x----|


D5 (Gm)
~~~~~~
|-3-|
E E E E E E S S S E E Q E +Q. E
|-------------------------|---------------------|
|--5--5-3---5b6-5---------|-3-5b6---5-(5)-------|
|--5--5-3---5b6-5-3h5p3---|-3-5b6---5-(5)-------|
|--5--5-3---------------5-|---------------------|
|---------5---------------|---------------------|
|-------------------------|---------------------|
|
| PM PM----| PM PM|
| +E E E E E E E E E E E E E E E E
|-------------------------|---------------------|
|-------------------------|---------------------|
|-(5)---5---------5s====7-|-7-----7-------7---3-|
|-(5)-------------5s====7-|-7-----7-------7---3-|
|-(3)-3---3-3---3-3s====5-|-5-5-----5--5--------|
|-------------------------|---------------------|


G5 C5
W H Q E E
|--------------------|-------------------------|
|--------------------|-------------(15)-17b18==|
|--------------------|-------------(15)-17b18==|
|--------------------|-------------------------|
|--------------------|-------------------------|
|--------------------|-------------------------|
|
| PM PM ~~~~~~
| +E E E E E E +Q E E E E E E E E
|--------------------|-------------------------|
|--------------------|-------------------------|
|-(3)----------------|-----3-------------5-----|
|-(3)---5---3-5-(5)--|-3-5-3-5-----------5-----|
|-------5---3-5-(5)--|-3-5---5---x---x---3-----|
|-----3---3----------|-----------x---x---------|


D5 (Gm)
~~~~~~~ ~~ ~~~
+E E E E +Q E E E E E E Q S S E
|-----------------------------|---------------------------------|
|-(17)r-17-15-17-(17)---------|-17-17b18-17-17b18---------------|
|-(17)r-17-15-17-(17)---15----|-17-17b18-17-17b18-15------------|
|--------------------------17-|------------------------17p15-17-|
|-----------------------------|---------------------------------|
|-----------------------------|---------------------------------|
|
| PM PM-----| PM PM---|
| +E E E E E E E E E E E E E E E E
|-----------------------------|---------------------------------|
|-----------------------------|---------------------------------|
|--(5)------5------------5s=7-|--7--------7----------7--------3-|
|--(5)-------------------5s=7-|--7--------7----------7--------3-|
|--(3)---3-----3---3--3--3s=5-|--5--5--------5-----5------------|
|-----------------------------|---------------------------------|


G5 C5
~~~~~~~~~~~~~~
+Q +Q H H E E E E
|-------------------------|----------------0--|
|-------------------------|-------------------|
|-------------------------|-------------------|
|-(17)---(17)\------------|-------------------|
|-------------------------|-------------------|
|-------------------------|-----------xs20----|
|
| PM PM ~~~~~~
| +E E E E E E +Q E E E E E E E E
|-------------------------|-------------------|
|-------------------------|-------------------|
|--(3)--------------------|-----3----------5--|
|--(3)-----5-----3-5-(5)--|-3-5-3-5--------5--|
|----------5-----3-5-(5)--|-3-5---5---x--x-3--|
|------3-------3----------|-----------x--x----|


D5
|-------6-------| |------6-------| |------6-------| |------6-------|
S S S S S S S S S S S S S S S S S S S S S S S S
|-22p=20p18----------20p18p15----------18p15p13----------------------------|
|-----------20-18-15----------18-15-13-------------------20p18p15----------|
|-----------------------------------------------19-17-15----------17-15-12-|
|--------------------------------------------------------------------------|
|--------------------------------------------------------------------------|
|--------------------------------------------------------------------------|
|
| PM PM---------------|
| +E E E E E E E E
|--------------------------------------------------------------------------|
|--------------------------------------------------------------------------|
|-(5)-----------------5-----------------------------------5s=======7-------|
|-(5)-----------------------------------------------------5s=======7-------|
|-(3)--------3-----------------3--------3--------3--------3s=======5-------|
|--------------------------------------------------------------------------|


(Gm)
|------6-------| |------6-------| |------6-------| |--3--|
S S S S S S S S S S S S S S S S S S S S S E
|-------------------------------------------------------------------||
|-18p15p13----------------------------------------------------------||
|-------------------19p17p15----------17p15p12----------15-12p10-12-||
|----------20-17-15----------17-15-12----------15-12-10-------------||
|-------------------------------------------------------------------||
|-------------------------------------------------------------------||
|
| PM PM------|
| E E E E E E E E
|-------------------------------------------------------------------||
|-------------------------------------------------------------------||
|--7-----------------7--------------------------7-----------------3-||
|--7-----------------7--------------------------7-----------------3-||
|--5--------5-----------------5--------5----------------------------||
|-------------------------------------------------------------------||


Outro
G5 C5
~~~~ ~~~
|--3--|
+Q. +E E E E E +E E E E E. +S E S S S
|-----------------------------------|--------------------------------------------|
|--------------------15b15.5-----17-|-(17)-17b18-17-17b18---------------15h18h20-|
|-(12)-----(12)\-/15-15b15.5-----17-|-(17)-17b18-17-17b18-15----(15)\------------|
|----------------------------17-----|--------------------------------------------|
|-----------------------------------|--------------------------------------------|
|-----------------------------------|--------------------------------------------|
|
| PM PM ~~~~~~~~~~~
| +E E E E E E +Q E E E E E E E E
|-----------------------------------|--------------------------------------------|
|-----------------------------------|--------------------------------------------|
|--(3)------------------------------|-------------3----------------------5-------|
|--(3)---5---------3--5------(5)----|---3---5-----3--5-------------------5-------|
|--------5---------3--5------(5)----|---3---5--------5--------x-------x--3-------|
|------3-----3----------------------|-------------------------x-------x----------|


D5
|--------------------14:8---------------------| |-----------9:8-----------| |-----------9:8-----------|
S S S S S S S S S S S S S S T T T T T T T T T T T T T T T T T T
|-20-------------------18-----------------20----------------18------------------20------------------18---------|
|-----20p18p15h==18h20------18h20p18p15------20p18p15h18h20----20p==18p15h18h20----20p18p15h18h==20----20p18p==|
|--------------------------------------------------------------------------------------------------------------|
|--------------------------------------------------------------------------------------------------------------|
|--------------------------------------------------------------------------------------------------------------|
|--------------------------------------------------------------------------------------------------------------|
|
| PM PM------------------------|
| +E E E E E E E E
|--------------------------------------------------------------------------------------------------------------|
|--------------------------------------------------------------------------------------------------------------|
|-(5)---------------------5------------------------------------------------------5s============7---------------|
|-(5)----------------------------------------------------------------------------5s============7---------------|
|-(3)----------3------------------------3-----------3-------------3--------------3s============5---------------|
|--------------------------------------------------------------------------------------------------------------|


(Gm)
|---------------------15:8----------------------| |------------------13:8-------------------|
S S S S S S S S S S S S S S S S S S S S S S S S S S S S
|----------20--------------------18------------------18------------20p18-20p==18p15------------18b20==|
|-15h18h20------20p18p15h18h==20----20p18p==15h18h20----20p18h20--------------------20p==15-15--------|
|-----------------------------------------------------------------------------------------------------|
|-----------------------------------------------------------------------------------------------------|
|-----------------------------------------------------------------------------------------------------|
|-----------------------------------------------------------------------------------------------------|
|
| PM PM---------|
| E E E E E E E E
|-----------------------------------------------------------------------------------------------------|
|-----------------------------------------------------------------------------------------------------|
|--7------------------------7------------------------------------7---------------------3--------------|
|--7------------------------7------------------------------------7---------------------3--------------|
|--5----------5---------------------------5-----------5-----------------------------------------------|
|-----------------------------------------------------------------------------------------------------|


G5
~~~~~~~
+Q E E +E +E E S S
|-(18)---18-18-(18)-(18)r\-/15--------|
|-------------------------------14p13-|
|-------------------------------------|
|-------------------------------------|
|-------------------------------------|
|-------------------------------------|
|
| PM PM ~~~~~~~~~~
| +E E E E E E +Q
|-------------------------------------|
|-------------------------------------|
|--(3)--------------------------------|
|--(3)----5------3----5-----(5)-------|
|---------5------3----5-----(5)-------|
|------3-----3------------------------|


C5
|------6-------|
S S S S S S S S S S S S S S T T T T T T T T
|-------13----14p13-15-14h15p14p13----13----------------------------|
|-15-14----15----------------------15----15-14h15p14p13----13h14h15-|
|-------------------------------------------------------15----------|
|-------------------------------------------------------------------|
|-------------------------------------------------------------------|
|-------------------------------------------------------------------|
|
| E E E E E E E E
|-------------------------------------------------------------------|
|-------------------------------------------------------------------|
|--------------3-----------------------------------------5----------|
|--3-----5-----3-----5-----------------------------------5----------|
|--3-----5-----------5--------------x--------x-----------3----------|
|-----------------------------------x--------x----------------------|


D5
|-------6-------| |------6-------| |------6-------|
S S S S S S S S S S S S T T T T T T T T S S S S S S
|-13-----------------------------13----------------------------13-----------------|
|-----15p14h15p14p13----13h14h15----15-14h15p14p13----------13----15-14h15p14p13--|
|--------------------15----------------------------15p12h15-----------------------|
|---------------------------------------------------------------------------------|
|---------------------------------------------------------------------------------|
|---------------------------------------------------------------------------------|
|
| PM PM------------------|
| +E E E E E E E E
|---------------------------------------------------------------------------------|
|---------------------------------------------------------------------------------|
|-(5)-----------------5-----------------------------------------5s=======7--------|
|-(5)-----------------------------------------------------------5s=======7--------|
|-(3)--------3-----------------3--------3-----------3-----------3s=======5--------|
|---------------------------------------------------------------------------------|


(Gm)
~~~
|------6-------| |--3--| |----3-----|
S S S S S S S S S S S E E S S E E
|------------------------------------------------------|
|------------------------------------------------------|
|-15-12-15p14p12----14h15p14-12----12------------------|
|----------------14-------------15----14---12----12----|
|---------------------------------------------15----13-|
|------------------------------------------------------|
|
| PM PM---|
| E E E E E E E E
|------------------------------------------------------|
|------------------------------------------------------|
|--7-----------------7-------------------7-----------3-|
|--7-----------------7-------------------7-----------3-|
|--5--------5-----------------5-----5------------------|
|------------------------------------------------------|


G5 C5
~~~~~~ ~~ ~~~~~~~~~
|--3--| |--3--|
+E S S S S S S S S S S +S +S S S S E S S Q +E S S S S S S S
|-----------------------------------------------------------|------------------------------------------|
|-----------------------------------------------------------|------------------------------------------|
|------------------15h17p15-------17b19==(17)r(17)p15-17-17p|=15--------------------------15-----------|
|------------15h17----------17-15---------------------------|----17-15-17---(17)----15-17----17-15-----|
|-(13)-15s17------------------------------------------------|--------------------17----------------17--|
|-----------------------------------------------------------|------------------------------------------|
|
| PM PM ~~~~~~~~~~~~~~~~~
| +E E E E E E +Q E E E E E E E E
|-----------------------------------------------------------|------------------------------------------|
|-----------------------------------------------------------|------------------------------------------|
|--(3)------------------------------------------------------|-----------3---------------------5--------|
|--(3)--------5--------------3-----5-----------(5)----------|--3--5-----3-5-------------------5--------|
|-------------5--------------3-----5-----------(5)----------|--3--5-------5-------x-----x-----3--------|
|-------3-----------3---------------------------------------|---------------------x-----x--------------|


D5
S S S S S S S S S S S S S S S S
|-------------------------------------------------|
|-------------------------------------15----17-15-|
|-------15----19-15----15-17p15-18-17----18-------|
|-15s17----17-------17----------------------------|
|-------------------------------------------------|
|-------------------------------------------------|
|
| PM PM---------|
| E E E E E E E E
|-------------------------------------------------|
|-------------------------------------------------|
|--5-----------5-----------------------5s====7----|
|--5-----------------------------------5s====7----|
|--3-----3-----------3-----3-----3-----3s====5----|
|-------------------------------------------------|


(Gm) G5
~~~~~
|--3--| |------6-------| |------6-------| |--3--|
S S S S S S S S S S S S S S S S S T T T T S S S H H
|----------------------------15----------------15-17h18p17h18p17p15----15-|-18b20----------------*|
|-18p17-18p17p15----15h17h18----18p17p15h17h18----------------------18----|----------------------*|
|----------------18-------------------------------------------------------|----------------------*|
|-------------------------------------------------------------------------|----------------------*|
|-------------------------------------------------------------------------|----------------------*|
|-------------------------------------------------------------------------|----------------------*|
|
| PM PM------| PM PM ~~~~~~
| E E E E E E E E +E E E E E E +Q
|-------------------------------------------------------------------------|----------------------*|
|-------------------------------------------------------------------------|----------------------*|
|--7--------------7--------------------------7--------------------3-------|-(3)------------------*|
|--7--------------7--------------------------7--------------------3-------|-(3)-----5---3-5-(5)--*|
|--5-----5-----------------5--------5-------------------------------------|---------5---3-5-(5)--*|
|-------------------------------------------------------------------------|-------3---3----------*|

Read More......

My Top Site